-------------------------------------------------------------------------------
THE BLAME - MADBALL
-------------------------------------------------------------------------------

By: Rob Hamilton ([email protected])

Intro / Opening Note:
e|------------------|
B|------------------|
G|------------------|
D|---------7--------|
A|---------7--------|
E|---------5--------|
Hold for a long time.

Verse:
e|---------------------------------------------------------------------------|
B|---------------------------------------------------------------------------|
G|--------7-------------------------5----------------------------------------|
D|-----7--7---8---8---8---8------5--5--7--7--7--7----------------------------|
A|-----7--5--10--10--10--10------5--3--7--7--7--7----------------------------|
E|-----5-----10--10--10--10------3-----5--5--5--5----------------------------|
Play 4 times.

Chorus:
e|---------------------------------------------------------------------------|
B|---------------------------------------------------------------------------|
G|----------------------------2--2--2--2--2--2--2--2-------------------------|
D|----3--3--3--3--3--3--3--3--2--2--2--2--2--2--2--2-------------------------|
A|----3--3--3--3--3--3--3--3--0--0--0--0--0--0--0--0-------------------------|
E|----1--1--1--1--1--1--1--1-------------------------------------------------|
Play 4 times

Order:
Intro / Opening Note
Verse
Chorus
Verse
Chorus
Verse
Chorus
Verse

That's it. All you hardcore kids have fun.

-------------------------------------------------------------------------------



Ваше мнение



Капча

Рекомендуем