Song:Streets of hate
Band:Madball
Album:Demonstrating my Style
tabbed by:Maarten de Ranitz [email protected]
>=strum
intro
G:---------------------------------------------------------------
D:---------------------------------------------------------------
A:---------------------------------------------------------------
E:-----------6---------------------------------------------------
verse
G:---------------------------------------------------------------
D:---------------------------------------------------------------
A:---------------------------------------------------------------
E:--6--6>--6-4-6-6--6-6>-6-6-6-6--------------------------
chorus
G:---------------------------------------------------------------
D:---------------------------------------------------------------
A:---------------------------------------------------------------
E:-4-7-7-7--4-7-7-7--6-6-6-6-6-----------------------------
streets of hate !
G:---------------------------------------------------------------
D:---------------------------------------------------------------
A:---------------------------------------------------------------
E:-0-0-0-0-0-0-0-0-0-4-7-7---0-0-0-0-0-0-0-0-4-6-6-6-
that's all



Ваше мнение



Капча

Рекомендуем