----------------------------------------------------------------------
SET IT OFF - Madball
----------------------------------------------------------------------

By: Brad: [email protected]

e|-------------------------------------|
B|-------------------------------------|
G|---------------------------------3---|
D|----4/5---4/5---2----4/5---4/5---3---|
A|----4/5---4/5---2----4/5---4/5---1---|
E|----2/3-x-2/3-x-0----2/3-x-2/3-x-----
INTRO PART A

e|-------------------------------------------------|
B|-------------------------------------------------|
G|--------7-9---10-9-7-9---------------------------|
D|--------7-9---10-9-7-9-----7---8---5---7---5-3---|
A|--------5-7----8-7-5-7-----7---8---5---7---5-3---|
E|----x-x-----x----------x-x-5-x-6-x-3-x-5-x-3-1---|
VERSE PART B

e|--------------------------------|
B|--------------------------------|
G|--------------------------------|
D|----2--2-2-2---2-2-2-2--9-5-7---|
A|----2--2-2-2---2-2-2-2--9-5-7---|
E|----0--0-0-0---0-0-0-0--7-3-5---|
CHORUS PART C

e|----------------------------------------------------------------|
B|----------------------------------------------------------------|
G|----------------------------------------------------------------|
D|----2-2-2-2-2--2-2-2-2-2-2-2--2-2-2-2-2-2-2--2-2-2-2--5-----8---|
A|----2-2-2-2-2--2-2-2-2-2-2-2--2-2-2-2-2-2-2--2-2-2-2--5-----8---|
E|----0-0-0-0-0--0-0-0-0-0-0-0--0-0-0-0-0-0-0--0-0-0-0--3-x-x-6---|
BRIDGE PART D

e|-----------------------------------------------------------|
B|-----------------------------------------------------------|
G|----9-9-9-9-9---------3-----7--9-9-9-9-9-------------------|
D|----9-9-9-9-9---------3-----7--9-9-9-9-9---------5-----8---|
A|----7-7-7-7-7---------1-----5--7-7-7-7-7---------5-----8---|
E|--------------x-x-x-x---x-x--------------x-x-x-x-3-x-x-6---|
ENDING PART E

e|--------------|
B|--------------|
G|--------------|
D|----5-8-5-2---|
A|----5-8-5-2---|
E|----3-6-3-0---|
song ends with this

SONG STRUCTURE:
A,B,C,A,B,C,D,E

----------------------------------------------------------------------



Ваше мнение



Капча

Рекомендуем