-------------------------------------------------------------------------------
NEW YORK CITY - Madball
-------------------------------------------------------------------------------

[email protected]

E--------------------------------------------------------
B--------------------------------------------------------
G--------------------------------------------------------
D--3--2-----8s7---8s7---3-----------8s7---8s7---8s7---3--
A--3--2-----8s7---8s7---3-----------8s7---8s7---8s7---3--
E--1--0--0--6s5-0-6s5-0-1-----------6s5-0-6s5-0-6s5-0-1--

Verse:
E----------------------------------------------------
B----------------------------------------------------
G----------------------------------------------------
D--3-xx-3--x3-3-3-3--4---------2----8s7---8s7---8s7--
A--3-xx-3--x3-3-3-3--4---------2----8s7---8s7---8s7--
E--1-xx-1--x1-1-1-1--2---------0----6s5-0-6s5-0-6s5--
3x

E-----------------------------------
B-----------------------------------
G-----------------------------------
D--3----4--6--66---2---3-4---33-33--
A--3----4--6--66---2---3-4---33-33--
E--1----2--4--44---0---1-2---11-11--

E----------------------------------------------
B----------------------------------------------
G----------------------------------------------
D--3-3-x-4-3--3-3--33----3-3-x-4---2--3--4--7--
A--3-3-x-4-3--3-3--33----3-3-x-4---2--3--4--7--
E--1-1-x-2-1--1-1--11----1-1-x-2---0--1--2--5--

-------------------------------------------------------------------------------



Ваше мнение



Капча

Рекомендуем