Artist: The Mad Capusule Markets
Song: Loud Up
Album: CiSTm KOnFLiqT
Tabbed by Tom Hackett (FoRx) [email protected]
Tuning: Drop D

Intro

|----------------------------------------------|
|----------------------------------------------|
|----------------------------------------------|
|--5-4-5-4----7--------------------------------|
|--5-4-5-4-x4-7--------------------------------|
|--5-4-5-4----7--------------------------------|

Main

|----------------------------------------------|
|----------------------------------------------|
|----------------------------------------------|
|--5-4-5-4-4-4---------------------------------|
|--5-4-5-4-4-4--x4-----------------------------|
|--5-4-5-4-4-4---------------------------------|

Chrous

|----------------------------------------------|
|----------------------------------------------|
|--5-------------------------------------------|
|--5----5----3---------------------------------|
|--3----5----3---------------------------------|
|-------5----3---------------------------------|

Bridge

|----------------------------------------------|
|----------------------------------------------|
|--5----7----4----5--------2-------------------|
|--5----7----4----5--------2-------------------|
|--3----5----2----3----x4--0-------------------|
|----------------------------------------------|

Intro x 2
Main x 2
Chrous x 2
Intro x 2
Main x 2
Chorus x 4
Bridge
Chorus x 6
Intro x 1
Main x 1

Has to be my fav song from the new album. Drop me an email if you use
my tab cause I'd like to hear what you think.


Ваше мнение



Капча

Рекомендуем