U2 : Achtung Baby
"Satellite Love" [Lou Reed]
--------------
G A7 C D
Satellites gone up to the sky (Riff 1)
G A7 C D
Things like that drive me out of my mind (Riff 1)
Em(VII) D(V) C(III)
I watched it for a little while (Riff 2)
Am C (Riff 3)
I love to watch things on TV
Chorus:
G(X) D(X)
Oh Satellite of Love
F(VIII) C(VIII)
Ah Satellite of Love
G(X) D(X)
Satellite of Love
G(X) D(X) C(VIII) D(X)
Sa - tel - lite
(The above chording throughout the versus and for the chorus is the same
for the rest of the song except where noted.)
Satellites gone, way up to Mars
Soon it will be filled with parking cars
I watched it for a little while
I like to watch things on TV
Chorus
I've been told that you've been bored
With Harry, Mark and John
Monday, Tuesday, Wednesday, Friday,
Harry, Mark and John
Satellites gone up to the sky
Things like that drive me out of my mind
I watched it for a little while
I love to watch things on TV
Chorus
Ending: G A C(VIII)
CHORDS:
A7 X 0 2 0 2 0 Em(VII) 7 7 9 9 8 7
D(V) 5 5 7 7 7 X C(III) 3 3 5 5 5 X
G(X) 10 10 12 12 12 10 D(X) 10 12 12 11 10 10
F(VIII) 8 8 10 10 10 8 C(VIII) 8 10 10 9 8 8
Experiment with the following riffs!
Riff 1: Riff 2:
D
--3-2-0-2-0-2-3------- ----------------------
--3------------------- ----------------------
--2------------------- ----------------------
---------------------- ----------------------
---------------------- ---3-2--0-------------
---------------------- ----------------------
Riff 3
C 2x
-----3-----|-3--------
-------1---|---1------
---------0-|-----0----
---2-------|----------
-3---------|----------
-----------|----------


Ваше мнение



Капча

Рекомендуем