-------------------------------------------------------------------------------
ANOTHER DAY - Lene Marlin
-------------------------------------------------------------------------------
Tabbed by: Ronny A. Dahl, Norway
Email: [email protected]
Tuning: Standard
Intro:

F C Am
E-------------0----------|-------------3----------|-------------0----------|
B----------1-----1-------|----------1-----1-------|----------1-----1-------|
G-------0-----------0----|-------0-----------0----|-------2-----------2----|
D----3-----------------3-|----2-----------------2-|----2-----------------2-|
A-0----------------------|-3----------------------|-0----------------------|
E------------------------|------------------------|------------------------|
G
E-------------0------------------
B----------------3---------------
G----------0--------0------------ x2
D-------0--------------0---------
A----2---------------------------
E-3------------------------------
Verse: | F-C-Am-G F-G-Am | x4
1st Bridge: | E-Am-F-Am-F-Am-G |
Chorus: | C-C*-Am-G-F-Am-F-Am-G | x2
2nd Bridge: | Am-G-C-G-F-Am-G |
-The End-
------------------------
Special chords:
|E |A |D |G |B |e
C* = |x |2 |0 |0 |1 |0
------------------------
This should be about right. Listen to the song to get the exact rhythm.

ENJOY!!
| / slide up
| slide down
| h hammer-on
| p pull-off
| ~ vibrato
| + harmonic
| x Mute note
===============================================================================


Ваше мнение



Капча

Рекомендуем