From: Usman Haroon
Date: April 21, 2001
Title : How do i live
Artist: Leann Rimes
Written by: Diane Warren
**INTRO**
___around this area is a 12 string guitar as well
|
V
-------
| |
e|--------------(5/75)-----10-9-7-7/95----|
b|----0-3-0-3----5/75----------------------|
g|--2---------------------------------------|
d|------------------------------------------|
a|------------------------------------------|
e|------------------------------------------|
e|--------------(5/75)-----10-9-7-7/95----|
b|----0-3-0-3----5/75----------------------|
g|--2---------------------------------------|
d|------------------------------------------|
a|------------------------------------------|
e|------------------------------------------|
Than it goes...
Bsus E B/D#
How do I, get through one night without you .....
....and so on
Such a great song
No one on the net has tabbed it, so i decided to make it.
Pretty easy, but a great song.
Corrections: [email protected]
(Also Our Favourite Sad Song)


Ваше мнение



Капча

Рекомендуем