capo 1st fret
Normal Tuning
E----3-------2-------1-----------------1-------------3---------------|
B------------3-------------------------1-----------------------------|
G------------4-------------------------1-2---------------------------|
D------------5-------------2-----------1-----------------------------|
A----2---------------2-----3-----------1-3-----------2---------------|
E----3---------------3-----------------1-------------3---------------|
You are so beau tiful to me
E---2-----1-----------------------1--------3---------2--------------|
B---3-----------------------------1------------------3--------------|
G---4-----------------------------1-2----------------4--------------|
D---5------------------2----------1------------------5--------------|
A---------2------------3----------1-3------2------------------------|
E---------3-----------------------1--------3------------------------|
You are so beautiful to me
E--1------1----------------------------2----------------------------|
B--3----------------------------------------------------------------|
G--2-----------------------------------2----------------------------|
D------------------------2-------------1----------------------------|
A---------2--------------3-------------2----------------------------|
E---------3---------------------------------------------------------|
Can't you see You're everything I've hoped for
E-------------------------------------3-----------------------------|
B--------------------2----------------------------------------------|
G-------------------------------------------------------------------|
D---2----------------2----------------------------------------------|
A---2-------2-------------------------2-----------------------------|
E-------------------------------------3-----------------------------|
You're everything I need You are so........
-Repeat what you just did. I know this doesn't look right but it's
only because I don't know how to write out a tab on the computer. I
promise this is how you play it on the guitar though


Ваше мнение



Капча

Рекомендуем