H2O - Friends

tabbed by: Dylan Christensen

Chords used:
C G A F E1 E2
E-----------------------------|
B--5--------------9-----------|
G--5--4--6--2--1--9-----------|
D--5--5--7--3--2--9-----------|
A--3--5--7--3--2--7-----------|
E-----3--5--1--0--0-----------|

intro:
C G A G F C G F E
E-------------------------------------------------------------------------------|
B-------------------------------------------------------------------------------|
G-----5----------------------------------------------5----------------------1--|
D---5---5-----5---------7--7-7-------5--3---3------5---5------5----3-3-3-3--2--|
A-3---------5---5-------7--7-7-------5--3-3---3--3----------5---5--3-3-3-3--2--|
E---------3-------(3)5-5--5-5-(5)/3-3--1-----------------3--------1-1-1-1--0--|

solo:
E-----------------------------------|------------------------------------------------------------------|
B-----------------------------------|------------------------------------------------------------------|
G-9--9-9-9--12----------------------|----------------------------------------9--9-9-9--12--------------|
D--------------12~-1214-14/12-10~~-|--10-10...--9-9...-----------------------------------12--10..--9..|
A-----------------------------------|------------------1012-12-12/10-10-8~----------------------------|
E-----------------------------------|------------------------------------------------------------------|
^this part i am not to sure of

verse: C G A G F

bridge: F E1 E2


Ваше мнение



Капча

Рекомендуем