EVERREADY - H20

By: Olson Patterson

u = up stoke
d = down stoke
x= pick slide

intro 1:
guitar 1:d u d u d u d u d u d u d u
e|-----|-----------------------------|
B|-----|--play-a-crap-load-of-times--|
G|-4-4-|-x-4-x-4-x-4-x-4-x-4-x-4-x-4-|
D|-4-4-|-x-x-x-x-x-x-x-x-x-x-x-x-x-x-|
A|-2-2-|-x-2-x-2-x-2-x-2-x-2-x-2-x-2-|
E|-----|-----------------------------|

intro 2:
guitar 2: (these chords come in later)
e|---------------------------|-----------|
B|---------play-6-times------|-----------|
G|-4-------------------------|-7---6---4-|
D|-4---------------6-------4-|-7---6---4-|
A|-2---------------6-------4-|-5---4---2-|
E|-----------------4-------2-|-----------|

e|-----------------------------------------------------------------|
B|-----------------------------------------------------------------|
G|-----------------------------------------------------------------|
D|-4-4-4-4-7-7-7-7-9-9-9-9-9-9-9-9-4-4-4-4-7-7-7-7-2-2-2-2-2-2-2-2-|
A|-4-4-4-4-7-7-7-7-9-9-9-9-9-9-9-9-4-4-4-4-7-7-7-7-2-2-2-2-2-2-2-2-|
E|-2-2-2-2-5-5-5-5-7-7-7-7-7-7-7-7-2-2-2-2-5-5-5-5-0-0-0-0-0-0-0-0-|

e|------------------------------------------------------|
B|------------------------------------------------------|
G|------------------------------------------------------|
D|-4-4-4-4-7-7-7-7-9-9-9-9-9-9-9-9-4-4-4-4-7-7-7-7----2-|
A|-4-4-4-4-7-7-7-7-9-9-9-9-9-9-9-9-4-4-4-4-7-7-7-7----2-|
E|-2-2-2-2-5-5-5-5-7-7-7-7-7-7-7-7-2-2-2-2-5-5-5-5----0-|

F#iio G#iio F#iio D C# B
e|-------------------------------------------------------------|
B|-------------------------------------------------------------|
G|--4-4-4-4-4-4-4-4-----------------4-4-4-4-4-4-4-4--7---6---4-|
D|--4-4-4-4-4-4-4-4-6-6-6-6-4-4-4-4-4-4-4-4-4-4-4-4--7---6---4-|
A|--2-2-2-2-2-2-2-2-6-6-6-6-4-4-4-4-2-2-2-2-2-2-2-2--5---4---2-|
E|------------------4-4-4-4-2-2-2-2----------------------------|

e|-----------------------------------------------------------------|
B|-----------------------------------------------------------------|
G|-----------------------------------------------------------------|
D|-4-4-4-4-7-7-7-7-9-9-9-9-9-9-9-9-4-4-4-4-7-7-7-7-2-2-2-2-2-2-2-2-|
A|-4-4-4-4-7-7-7-7-9-9-9-9-9-9-9-9-4-4-4-4-7-7-7-7-2-2-2-2-2-2-2-2-|
E|-2-2-2-2-5-5-5-5-7-7-7-7-7-7-7-7-2-2-2-2-5-5-5-5-0-0-0-0-0-0-0-0-|


Ваше мнение



Капча

Рекомендуем