now or never
godsmack
godsmack
by mike gruszkowski {[email protected]}

its pretty easy once u listen to the song

intro/verse
g-----------------------------------------------------------------------------
d---------------3~------------------------------------------3~----------------
a-----------------------------------------------------------------------------5
e--0-0-0-0-0---------0-0-0-0-0-3-5--------0-0-0-0-0------0-0-0-0-0--------

before chorus
a-------5~-5---------------------
e-------------5--3----------------

chorus - -just like verse but a little different

g-----------------------------------------------------------------------------
d---------------3~--------------------------------------3~--------------------
a-----------------------------------------------------------------------------
e---0-0-0-0-0--------0-0-0-0-0-3-5----0-0-0-0-0---------0-0-0-0-0-3-5---------

thats pretty much it
except for variations thrown in



Ваше мнение



Капча

Рекомендуем