intro/ main verse:
E|----------------------------| x= muted strings (the mutes aren' im any order)
B|----------------------------|
G|----------------------------|
D|--2-x-2-x-2-2-x-2-2-x-2-2---|
A|--2-x-2-x-2-2-x-2-2-x-2-2---|
D|--0-x-0-x-0-0-x-0-0-x-0-0---|
chorus:
E|--------------------------------------| struming's off.
B|--------------------------------------|
G|--------------------------------------|
D|--5-5-5-5-5/7-7-7-7-7-7/5-5-5-5-5-----|
A|--3-3-3-3-3/5-5-5-5-5-53-3-3-3-3-----|
D|--------------------------------------|
pre-solo:
E|-----------------------------------------|
B|-----------------------------------------|
G|-----------------------------------------|
D|-----------------------------------------|
A|--9-9-9-9-9/10-9-9-9-9-9-9--7--5--4-----| ( 4 2 )
D|--7-7-7-7-7/8-87-7-7-7-7-7--5--3--2-----| (the 2 part might be a 0 instead)
solo:
E|---------------------------------------------------|
B|---------------------------------------------------|
G|--12--0-0--10-------0-0--9-0-8-0-0-----------------|
D|--------------9/10------------------9/10---9/10----|
A|---------------------------------------------------|
D|---------------------------------------------------|



Ваше мнение



Капча

Рекомендуем