Main riff
G---------------
D---------------
A---------------
D-7777-44-22----

secondary riff
G-----------------------------------------
D-----------------------------------------
A-00000000-22222222-55555555-55-44-22-00--
D-----------------------------------------

breakdown
G-------------------
D-----------4h6p4---
A----------4-----6--
D-77-44-2-4---------


Ваше мнение



Капча

Рекомендуем