From [email protected] Tue Apr 8 13:04:16 1997
Date: Wed, 12 Mar 1997 06:11:09 -0700 (MST)
From: -- Ganja Digest --
To: [email protected]
Subject: Song: Mouth Dont Stop, By: FEAR
THE MOUTH DONT STOP
Wrote and Recorded by FEAR
From the Album, Have A Beer With FEAR
Tabbed by [email protected]
Intro
The timing is off so listen to the song..
||----------------------------------||
||----------------------------------||
||--9-9-9-9----7-7-7-7--------------|| Play this 2 times..
||--9-9-9-9----7-7-7-7--7-7-7-7-----||
||--7-7-7-7----5-5-5-5--7-7-7-7-----||
||----------------------5-5-5-5-----||
Chorus......played 10x
||----------------------------------||
||----------------------------------||
||--9-9-9-9^---7-7-7----------------||
||--9-9-9------7-7-7--7-7-7---------||
||--7-7-7------5-5-5--7-7-7---------||
||--------------------5-5-5---------||
I dont have the time for the Solo right now.. but this is pretty
much it for the the whole song..
I saw there wasnt ANYTHING from FEAR on the net at all.. which
is a big shame since this is a great punk band who is well known..
Comments:
evil[email protected]


Ваше мнение



Капча

Рекомендуем