song: You`ve got a problem
band: Face to Face
tabbed by: Carlos Pino
Verse
G|--------------------------------------------------------------||
D|--------------------------------------------------------------||
A|--5>--------------------3-----5-------------8------3-----||
E|----------6>-----1-------------------6---------------------||
Pre-Chorus
G-----------------------------------------------------------------------
D---------------------3-----------------------------3------------------
A-----------5--3--5-----5--3-----------5--3--5-----5--3----------
E---5----------------------------5------------------------------------
Chorus
G----------------------------------------------------------------------
D---------------------------------------------------------------------
A---5>--------10>-----------------10>------------10---9---7--5-
E------------------------5>------------------10-----------------------


Ваше мнение



Капча

Рекомендуем