Maselang Bahaghari
Eraserheads
Natin99
Intro: A-DM7
e-------10-------------10-------------13---------------------------|
B----10-----10-----10-----10-----11------11------11---10h11p10-----|
G-10-----------10------------12---------------12-------------------|
D------------------------------------------------------------------|
A------------------------------------------------------------------|
E------------------------------------------------------------------|

A-DM7
e-------10------------10---------------13--------------------------|
B----10----10-----10-----10------11------11------11---11-10-10-----|
G-10-----------10------------12--------------12--------------------|
D------------------------------------------------------------------|
A------------------------------------------------------------------|
E------------------------------------------------------------------|

A-DM7
e-------10-------------10-------------13---------------------------|
B----10-----10-----10----10------11------11------11---10h11p10-----|
G-10-----------10------------12--------------12--------------------|
D------------------------------------------------------------------|
A------------------------------------------------------------------|
E------------------------------------------------------------------|

A DM7
e-------10-------------10--------------13--------------------------|
B----10-----10-----10-----10------11------11------11---11-10----10-|
G-10-----------10------------12--------------12------------12---10-|
D------------------------------------------------------------------|
A------------------------------------------------------------------|
E------------------------------------------------------------------|

Verse 1:
A DM7
Akala ko ay dagat
A DM7
Yun pala ay alat
A F#m
Akala ko'y pumasok
G E
Sablay

(A)
e--------------------------|
B-10--9------9(2)---------|
G--------11----(2)---------|
D--------------(2)---------|
A--------------------------|
E--------------------------|

A DM7
Pikit ko ang aking mata
A DM7
Ano ang nakikita
A F#m
Akala ko'y wala nang
G E
Saysay

Chorus:
DM7
Maselang bahaghari
C#m7
Sa aking isipan
Bm7
Huwag kang mabahala
AM7
Di kita malilimutan
DM7
Paglipas ng ulan ay
C#m7
Mapapangiti ang araw
Bm7 E (break)
Wag sanang mawala ang

Maselang bahag. . .

Lead:
A DM7
e-------10-------------10-------------13---------------------------|
B----10-----10-----10-----10------11------11------11---11-10----10-|
G-10-----------10------------12---------------12------------12-----|
D------------------------------------------------------------------|
A------------------------------------------------------------------|
E------------------------------------------------------------------|
. .hari

A DM7
e-------10------------10--------------13---------------13----------|
B----10-----10-----10-----10------11------11------11-----11--------|
G-10-----------10------------12--------------12--------------------|
D------------------------------------------------------------------|
A------------------------------------------------------------------|
E------------------------------------------------------------------|
A DM7
Akala ko ay kul ako
A DM7
May ulap na sa ulo
A F#m
Akala ko ang pera'y
G E
Tunay

(A)
e----------------------------|
B-11--10------10(2)---------|
G--------12------(2)---------|
D----------------(2)---------|
A----------------------------|
E----------------------------|

A DM7
Pikit mo ang iyong mata
A DM7
Ano ang nakikita
A F#m
Akala mo'y wala nang
G-E
Saysay

(Repeat chorus)
(Repeat chorus except last word)

Coda: A G# G F#
e----------6------------5-----------4------------3-----------|
B----------6--6--------5--5--------4--4--------3--3----------|
G-------7-----------6-----------5-----------4----------------|
D----8-----------7-----------6-----------5-------------------|
A------------------------------------------------------------|
E------------------------------------------------------------|
Bahaghari. . . I . .

Finale
F—-
F-G-A

Ito na yun...
PAKI-RATE NA LANG PO...

[ [email protected] ]
Christopher Co - T.C.


Ваше мнение



Капча

Рекомендуем