artist:eraserheads
song:kaliwete
tab by:leander m.
tune:1/2 lower

noong nagsama tayo
ay kanan ang ginamit mo
ngunit biglang naturete
ikaw pala ay kaliwete

INTRO:
Eb|--------------------------------------------|
Bb|--------------------------------------------|
Gb|--------------------------------------------|
Db|--------7--4--7--4-----------7--4--7--4-----|
Ab|-----7--------------7-----7--------------7--|
Eb|--5--------------------5--------------------|

noong nagsama tayo...
Eb|--------------------------------------------|
Bb|--------------------------------------------|
Gb|-----------------------------7--4--7--4-----|
Db|--------7--4--7--4--------7--------------7--|
Ab|-----7--------------7--5--------------------|
Eb|--5-----------------------------------------|

ngunit biglang naturete
guitar I guitar II
Eb|-----------5-----------5-----| |--------------------------------|
Bb|-----------5-----------7-----| |--------------------------------|
Gb|--------6-----------7--------| |--------------------------------|
Db|-----7-----------7--------7--| |------7-4-7-4--------7-4-7-4----|
Ab|--7-----------5-----------7--| |----7---------7----7---------7--|
Eb|--------------------------5--| |--5--------------5--------------|

ikaw pala ay kaliwete
guitar I guitar II
Eb|-----------3-----------2-----| |--------------------------------|
Bb|-----------5-----------4-----| |--------------------------------|
Gb|--------5-----------4--------| |--------------------------------|
Db|-----5-----------4--------7--| |------7-4-7-4--------7-4-7-4----|
Ab|--3-----------2-----------7--| |----7---------7----7---------7--|
Eb|--------------------------5--| |--5--------------5--------------|

stanza
(do this every end of stanza's line)
Eb|--------------------------------------------|
Bb|--------------------------------------------|
Gb|--------------------------------------------|
Db|--------7--4--7--4-----------7--4--7--4-----|
Ab|-----7--------------7-----7--------------7--|
Eb|--5--------------------5--------------------|
A D A
sunod-sunod na kamalasan ang dumarating
A D A
hindi ko na malaman kung ano ang gagawin
E D A
sabi naman ni rico j. puno
C B A
mag-ayos lang daw ng upo

interlude:A-B-C#

Refrain:
D A
niyaya niya kami sa kubeta
D A A-B-C#
mata ay lumuwa sa nakita
D A
oh bakit ba ganyan/pa may buhay/kulay ng/ang tao
B E
mag-ingat ka na lang baka ikay ma mamaho.
hindi mo na alam kung ano o sino-sino(this is on second refrain)

A D A
niyaya siyang lumabas kahapon ngunit ayaw niya
A D A
hindi niya daw mahanap ang kapares ng bra niya
E D A
sampung oras ka kung maligo
C B A A-B-C#
pati ang kaluluwa moy babango
(repeat refrain)
(repeat 1st stanza)
(do this on last stanza)
guitar I
Eb|----------------------------------|
Bb|--14^15-15^16-15^17-14--15^17-17--|
Gb|----------------------------------|
Db|----------------------------------|
Ab|----------------------------------|
Eb|----------------------------------|

ikaw pala ay kaliwete(4x)
THE_END
[email protected][email protected]
this is for GORI of pink panthers

tab by:leander m.


Ваше мнение



Капча

Рекомендуем