t. See http://www.olga.net/faq/ for more information. #
Date: Sat, 8 Apr 2000 04:33:24 -0400
From: "bec ky"
Subject: e/eraserheads/julie_tearjerky.tab
song:"JULIE TEARJERKY"
artist:ERASERHEADS
album:ALOHA MILKYWAY
transcribed by:REBECCA N. ACOSTA
(1/2 step lower)
h - hammer
chords
AM7 C C/G# C/A C/Bb
I |||*|| III |||||* IV |||||* IV |||||| IV ||||||
||*|*| |||||| |||**| |||*** |||**|
|||||| |||**| |||||| |||||| |||||*
Intro
e|----------0--4-0----------------------0--4-0--------------------|
B|------2-3-------------------------2-3---------------------------|
G|---------------------------2---------------------------2--------|
D|--------------------0-0--2----------------------0-0--2----------|
A|-0---------------------------0---------------------------(0)----|
E|----------------------------------------------------------------|
(play intro, 4x)
(for verses)
chord pattern:
A-AM7
A-AM7
Bm-A---/G#° /F#° /E°

(for bridges)
chord pattern:
C-C/G#-C/A-C/Bb
F-Dm
Riff (use this for the following lines)
A AM7
e|------------------------|
B|-2-3-5--9-5--3--3--3h5--|
G|------------------------|
D|------------------------|
A|------------------------|
E|------------------------|
*(I hear her calling my name/
nothing stays the same/
Julie Tearjerky on the phone)

(do verse chord pattern)
**I hear her calling ...
I hear her calling ...
e|--------4------------------------4--------------------|
B|-2-3-5----5--3--3--3h5----2-3-5----5--3--3--3h5-------|
G|------------------------------------------------------|
D|------------------------------------------------------|
A|------------------------------------------------------|
E|------------------------------------------------------|
Pa pa pa pa pa pa pa pa . . . .
e|-2-2------------------------------4----------------4--|
B|-----5--5--3--2--0----2-2-2--3-5-------2-2-2--3-5-----|
G|------------------------------------------------------|
D|------------------------------------------------------|
A|------------------------------------------------------|
E|------------------------------------------------------|
Pa rap pa ra rap pa . . .
FOR MORE ERASERHEADS TABS, SEND AN EMAIL TO [email protected]


Ваше мнение



Капча

Рекомендуем