t. See http://www.olga.net/faq/ for more information. #
From: "bec ky"
Subject: e/eraserheads/hard_to_believe.tab
Date: Sat, 08 Jan 2000 18:41:36 PHT
title:"HARD TO BELIEVE"
artist:ERASERHEADS
album:STICKER HAPPY
transcribed by:REBECCA N. ACOSTA
(standard tuning)
h-hammer
p-pull off
Intro
e|--------------------------------------|
B|-5--5h6p5-----------------------------|
G|-----------7--5--3--2--3--2h3p2-------|
D|---------------------------------2----|
A|--------------------------------------|
E|--------------------------------------|
e|--------------------------------------|
B|----------0-0h2--0--------------------|
G|-------0------------0-----------------|
D|----2------------------0--------------|
A|-0------------------------------------|
E|--------------------------------------|
(Verses)
C C/B Bb A Dm
e|---------12--------------12--------------12-------------------------|
B|-13----------13--12----------12--11----------11--15--14-------------|
G|-----12--------------12--------------12------------------15--14-----|
D|--------------------------------------------------------------------|
A|--------------------------------------------------------------------|
E|--------------------------------------------------------------------|
C-G
e|---------13--------------13--------------13------15--12-------------|
B|-15----------14--13----------13--12----------12--------------12-----|
G|-----14--------------14--------------14------------------12---------|
D|--------------------------------------------------------------------|
A|--------------------------------------------------------------------|
E|--------------------------------------------------------------------|
Verse 1 (use the verse tabs above)
Chorus
C E Am G
I wanted life .....
Dm C-G
Just .....
C E Am G
O ......
Dm C-G
But .....
2 (use the verse tabs above)
(Repeat chorus)
Bridge
Bb A
Because your love ....
Dm F(hold)
That .....
C G C Am G
The only ......
Ad Lib
C E Am
e|-------0-----------0------------------------------------------------|
B|-------1-----------0------------------------------------------------|
G|-------------------------------0--2--2h3--2--0----------------------|
D|----2-----2-----2-----2-----0-------------------3-------------------|
A|-3-----------2-----------0------------------------------------------|
E|--------------------------------------------------------------------|
It's so hard to believe . . .
Dm
e|-------1--------------1--------------1--------------3---------------|
B|-------3----3---1-----1----1---0-----0----0---1--------0------------|
G|----2-----2---2----2-----2---2----2-----2---2----0------------------|
D|-0------------------------------------------------------------------|
A|--------------------------------------------------------------------|
E|--------------------------------------------------------------------
(Repeat Ad Lib)
(Repeat Chorus)
(Repeat Bridge except last word)
C F
. . . believe
C G C F
the only thing .....
C G
the only thing ....
(Repeat Intro Lead Tab)
Finale
C
e|-0-------------|
B|-1-------------|
G|-0-------------|
D|-3-------------|
A|-2-------------|
E|-0-------------|
if you have any questions about this tab, please email me
[email protected]


Ваше мнение



Капча

Рекомендуем