#----------------------------------PLEASE NOTE---------------------------------#
#This file is the author's own work and represents their interpretation of the #
#song. You may only use this file for private study, scholarship, or research. #
#------------------------------------------------------------------------------##
Fill Her
Artist:Eraserheads
Tabbed by:John Francis T. Magalona(15 yrs. old and available)
Taga Parada Valenzuela City
E-mail me at:[email protected]
If you have any comments and Suggestions!


This song can be played only by two fingers, because there is a pattern in the
whole song. You will need capo in the 5th Fret, a good fingers and the most important
is the song. Enjoy it!
------------------------5----------------------------------------------3------------------
--5-----------5-----------------------5-------3------------3-------------------------3----
--------0-----------0-----------0---------0----------0-------------0-----------0---------0
-----------0----0----------------------------------------0-----0--------------------------
--3--3------------------3----3------3---------2---2--------------------2----2-----2-------
------------------------------------------------------------------------------------------
------------------------3-----------------------------------------------------------------
--1-----------1-----------------------1------0-------------0-----------1s2--3-------------
--------0-----------0-----------0---------0----------0---------0--------------------------
-----------0----0----------------------------------------0---------0----------------------
--0--0------------------0----0------0----------------------------------2s3--3-------------
---------------------------------------------3----3---------------------------------------


Ваше мнение



Капча

Рекомендуем