-/
/ The following is the author's own interpretation of the song, to be used /
/ for private use and studying /
/-------------------------------------------------------------------------/
ENTOMBED STRANGER AEONS
From the Album ENTOMBED (mosh 125) & CLANDESTINE
Copyright 1997 EARACHE RECORDS

Version 1.0 - JUNE 1997
Transcribed by: Scott King
For Questions, Comments, Newest Version, or Corrections contact
Scott: [email protected]
Check out 's Death/Black Tab Webpage at

join the death/black tab emailing list by filling out the free
subscription form at /join.htm
. - palm mute / - slide up to
- slide down to ~ - vibrato
h - hammer on b - bend
p - pull off Suffixes for bend
ph - pinch harmonic f - full bend h - half bend
* - see comment r - release t - tap bend
X - percussion mute ~ - vibrato bend
@ - slight palm mute () - ghost note, sustained note
Tune Down to C
Riff A (play 1 time)
|------------------------|
|------------------------|
|------------------------|GTR1
|------------------------|
|------------------------|
|---------x--------/15-|
pick slide
|----------------------------------------------------------------------|
|----------------------------------------------------------------------|GTRS
|----------------------------------------------------------------------|1&2
|---------------------3-----------------------3----------------------3-|
|-------------------2-1---------------------2-1--------------------2-1-|
|-0-111-0-111-0-111-0-----0-111-0-111-0-111-0----0-111-0-111-0-111-0---|
. ... . ... . ... . ... . ... . ... . ... . ... . ...
end riff 1
|-------------------------------------------------------------------------|
|-------------------------------------------------------------------------|
|-------------------------------------------------------------------------|
|---------------------888---------------------3----------------------888--|
|---------------------666-------------------2-1----------------------666--|
|-0-111-0-111-0-111-0-----0-111-0-111-0-111-0----0-111-0-111-0-111-0------|
. ... . ... . ... . . ... . ... . ... . ... . ... . ... .
Riff B (play 1 time)
|-------------------------------------------------------------------------|
|-------------------------------------------------------------------------|
|-------------------------------------------------------------------------|
|----------------------------------------------------------------------9--|
|-55555555444444-7--6--3--------------------------55555555444444-7--6--7--|
|----------------5--4--1---0-000-0-000-0-000-0-000---------------5--4-----|
. ... . ... . ... . ...
End Riff B
|-------------------------------------------|
|-------------------------------------------|GTRS
|-------------------------------------------|1&2
|--------------------------------6----------|
|-------------------------55555554--7--6--3-|
|-0-000-0-000-0-000-0-000-----------5--4--1-|
. ... . ... . ... . ...

Riff C (play 4 times) end riff 3
|---------------------------------------------------|
|---------------------------------------------------|GTRS
|-----------------------------------9-7-6-----------|1&2
|------3--------3-------------------------8--7-8----|
|-2222-1-222-22-1-2----2-22-3-222----------------10-|
|-0000---000-00---0----0-00-1-000-------------------|
.... .. .. . . .. ...

Riff D (play 4 times) end riff 4
|------------------------------------------------------------------------|
|------------------------------------------------------------------------|GTRS
|------------------------------------------------------------------------|1&2
|----------*-------------------------------------------------------------|
|-44444444/12121212121212--8---44444444/12121212121212--8--54-----------|
|-22222222/10101010101010--6---22222222/10101010101010--6--32-----------|
........ .............. ........ .............. * These are 10's
and 12's
Riff E (play 1 time)
|----------------------------------------------------------|
|----------------------------------------------------------|
|----------------------------------------------------------|
|----------------------------------------------------------|
|-5-555-555-555---------------5-555-555-555----------------|
|---------------4-444-444-444----------------4-444-444-444-|
end riff 5
|----------------------------------------------------------|
|----------------------------------------------------------|GTRS
|----------------------------------------------------------|1&2
|----------------------------------------------------------|
|-3-333-333-333---------------3-333-333-333-4444-4444------|
|---------------2-222-222-222---------------2222-2222------|
.... ....

Riff F (play 1 time)
|-----------------------------------------------------------------|
|-----------------------------------------------------------------|
|-----------------------------------------------------------------|
|--------------------------------------------------------------ph-|
|--------88---2----------88---7~----------88---2----------88---7~-|
|-666666-66-6-0---666666-66-6------666666-66-6-0---666666-66-6----|
...... . ...... . ...... . ...... . end riff 6
|---------------------------------------------------------------------------|
|---------------------------------------------------------------------------|GTRS
|---------------------------------------------------------------------------|1&2
|-----------------------------ph-------------------------------------*------|
|--------88---2----------88---7~----------88---2----------88---2--(2)-------|
|-666666-66-6-0---666666-66-6------666666-66-6-0---666666-66-6-0--(0)--/12-|
...... . ...... . ...... . ...... .
Guitar 2 Pick slide
Riff G (play 2 times, solo falls in second time)
|----------------------------------------------------|
|----------------------------------------8---7-------|
|------------------------------------9-8-------8-----|
|-----------------3------------------------------9--|
|-2-----2---222---1----2-----2----2------------------|
|-0-000-0-0-000-0------0-000-0-00-0------------------|
... . . ... .. end riff7
|------------------------------------------------------|
|------------------------------------------------------|GTRS
|--------------------------------------------12p9--12-|1&2
|-----------------3-------------------9-12p9-----------|
|-2-----2---222---1----2-----2----2--------------------|
|-0-000-0-0-000-0------0-000-0-00-0--------------------|
... . . ... ..
solo
Play Riff D under solo play 6 times
Play Riff E one time
Play Riff F one time
Play Riff A one time



Ваше мнение



Капча

Рекомендуем