ENTOMBED - REVEL IN FLESH
From the Album LEFT HAND PATH
Copyright 1990 EARACHE RECORDS
Version 2.0 - JAN '02
Transcribed by: death8699
For Questions, Comments, Newest Version, or Corrections contact
death8699: at [email protected]
Check Out Death8699.com, With More Transcriptions On It:
http://www.death8699.com
. - palm mute / - slide up to
- slide down to ~ - vibrato
h - hammer on b - bend
p - pull off Suffixes for bend
ph - pinch harmonic f - full bend h - half bend
* - see comment r - release t - tap bend
X - percussion mute ~ - vibrato bend
@ - slight palm mute () - ghost note, sustained note
Tune Gtr to B
** R E V E L I N F L E S H **
Intro
|----------------|---------------|
|----------------|---------------|
|----------------|---------------|Gtrs
|----------------|-2-(2)---------|I&II
|-3-5-7---8-10-7-|-2-(2)---------|
|-1-3-5---6-8--5-|-0-(0)-----/x-|
. . .
Riff A
|-------------------|---------------------|---------------------------|
|-------------------|---------------------|---------------------------|
|-------------------|---------------------|---------------------------|Gtr
|-------------------|-------------3p2-----|---------------------------| I
|-----------4---4---|---------3-4-----4---|-----------4---4-----------|
|-0-0-000-3-4---4---|-0-0-000-3-4-------4-|-0-0-000-3-4---4---0-0-000-|
| . . ... . . . ... . . ... . . . ...
|
|
|---------------------------------------------------------------------|
|---------------------------------------------------------------------|
|---------------------------------------------------------------------|Gtr
|---------------------------------------------------------------------| II
|-------------------------------------------2-------3-4---4---2-------|
|-------------------------------------------0-------3-4---4---0-------|
|
|
|-----------|
|-----------|
|-----------|Gtrs
|-----------|I&II
|-6---6-3---|
|-4---4-1---|
Riff A.1
|------------------|--------------------|------------------|
|------------------|--------------------|------------------|
|------------------|--------------------|------------------|Gtrs
|-----------6---6--|-----------10-----6-|-----------6---6--|I&II
|-----------4---4--|---------6-8--6/7-4-|-----------4---4--|
|-0-0-000-3--------|-0-0-000-4----4/5---|-0-0-000-3--------|
| . . ... . . . ... . . ... .
|
|
| 2tx
|-------------------|
|-------------------|
|-------------------|Gtrs
|-------------------|I&II
|---------6---6-3---|
|-0-0-000-4---4-1---|
. . ...
Fill 1
|------------------------|------------------------|
|------------------------|------------------------|
|------------------------|------------------------|Gtrs
|-2-(2)------------------|-2-(2)------------------|I&II
|-2-(2)------5-3-7-8-5--|-2-(2)----------5-3-7-8-|
|-0-(0)------3-1-5-6-3--|-0-(0)------/x-3-1-5-6-|
.
Riff B
|---------------------------|---------------------------|
|---------------------------|---------------------------|
|---------------------------|---------------------------|Gtrs
|---2---2-------------------|---2---2-------------------|I
|---2---2-----------5-3-7-8-|---2---2-----------5-3-7-8-|
|-0-0---0-0-0-000-0-3-1-5-6-|-0-0---0-0-0-000-0-3-1-5-6-|
. . . ... . . . . ... .
Riff B 5tx
Riff C
|--------------------------------|
|--------------------------------|
|--------------------------------|Gtrs
|-----3-------3------------------|I&II
|-3---1---3---1------------------|
|-1-------1-----0000000000000000-|
|
|
|--------------------------------------|
|--------------------------------------|
|------------------------------10p9h10-|Gtrs
|-----3-------3--------10p9h10---------|I&II
|-3---1---3---1-777777-----------------|
|-1-------1----------------------------|
|
|
|--------------------------------|
|--------------------------------|
|--------------------------------|Gtrs
|-----3-------3------------------|I&II
|-3---1---3---1------------------|
|-1-------1-----0000000000000000-|
|
|
|
|------------------------|
|------------------------|
|--------10p9p10---------|Gtrs
|----------------10p9h10-|I&II
|------------------------|
|-000000-----------------|
Riff D
|------------------------------|-----------------------------|
|------------------------------|-----------------------------|
|------------------------------|-----------------------------|Gtrs
|------------------3-----------|-----------------------------|I&II
|-5-5---5-3-3---3--1-22-2-22-2-|-5-5---5-3-3---3-1~-(1)------|
|-3-3---3-1-1---1----00-0-00-0-|-3-3---3-1-1---1---------/x-|
|
|
|----------------------------|-------------------------|
|----------------------------|-------------------------|
|----------------------------|-------------------------|Gtrs
|------------------3---------|-----------------3-(3)---|I&II
|-5-5---5-3-3---3--1-22-2-22-|-5-5---5-3-3---3-1-(1)---|
|-3-3---3-1-1---1----00-0-00-|-3-3---3-1-1---1------x-|
Riff B 4tx
Riff C 1tx
Riff E
|------------------------|------------------------|
|------------------------|------------------------|
|------------------------|------------------------|Gtrs
|-2-(2)------------------|---------3--33-3---3----|I&II
|-2-(2)--------1111------|-1-(1)---1--11-1---1----|
|-0-(0)---2222------1111-|-1-(1)---------------x-|
| .... .... ....
|
|
|-----------------------------|------------|
|-----------------------------|------------|
|-----------------------------|------------|Gtrs
|-2-(2)-----------------------|-2-(2)------|I&II
|-2-(2)-----------------------|-2-(2)------|
|-0-(0)---111111111111-11-1-1-|-0-(0)---x-|
............ .. . . ^
Pick Slide
Riff F
|-----------------------------------------|-----------------------------|
|-----------------------------------------|-----------------------------|
|-----------------------------------------|-----------------------------|Gtr
|-----------------------------------------|-----------------------5-4-3-| I
|-2---------------------------------3-----|-----------------3-2-1-------|
|-0-0-0-0-0-0-0-0-0-0-0-0-0-0-0-0-0-1-----|-0-0-000-0-3-2-1-------------|
| . . . . . . . . . . . . . . . . . . ... .
|
|
|-----------------------------------------|-----------------------------|
|-----------------------------------------|-----------------------------|
|-----------------------------------------|-----------------------------|Gtr
|-----------------------------------------|-----------------------------| II
|-2---------------------------------3-----|-----------------3-2-1-------|
|-0-0-0-0-0-0-0-0-0-0-0-0-0-0-0-0-0-1-----|-0-0-000-0-3-2-1-------3-2-1-|
| . . . . . . . . . . . . . . . . . . ... .
|
| 2tx
|-------------------------------------|-----------------------------|
|-------------------------------------|-----------------------------|
|-------------------------------------|-----------------------------|Gtrs
|---------------------------------3---|-----------------------5-4-3-|I&II
|-2-------2---2-2-2-2-2-2-2-2-3---1---|-----2-----------3-2-1-------|
|-0-0-0-0-0-0-0-0-0-0-0-0-0-0-1-------|-0-0-0-0-0-3-2-1-------------|
. . . . . . . .

Riff F.1
|-----------------------------|---------------------------|
|-----------------------------|---------------------------|
|---------------------------4-|---------------------------|Gtrs
|---------------------------2-|---------------------------|I&II
|-22-2-22-2-22-2---------3----|---------------3-2-1-------|
|-00-0-00-0-00-0-0-0-000-1----|-0-0-000-3-2-1-------2-1-0-|
| . . ... . . ...
|
|
|-----------------------------|---------------------------|
|-----------------------------|---------------------------|
|---------------------------4-|---------------------------|Gtr
|---------------------------2-|---------------------5-4-3-| I
|-22-2-22-2-22-2---------3----|---------------3-2-1-------|
|-00-0-00-0-00-0-0-0-000-1----|-0-0-000-3-2-1-------------|
| . . ... . . ...
|
|
|-----------------------------|---------------------------|
|-----------------------------|---------------------------|
|---------------------------4-|---------------------------|Gtr
|---------------------------2-|---------------------------| II
|-22-2-22-2-22-2---------3----|---------------3-2-1-------|
|-00-0-00-0-00-0-0-0-000-1----|-0-0-000-3-2-1-------3-2-1-|
Riff D.1
|------------------------------|------------------------------|
|------------------------------|------------------------------|
|------------------------------|------------------------------|Gtrs
|------------------3-----------|---------------3-8~-(8)-------|I&II
|-5-5---5-3-3---3--1-22-2-22-2-|-5-5---5-3-3------------------|
|-3-3---3-1-1---1----00-0-00-0-|-3-3---3-1-1---1-6~-(6)---/x-|
|
|
|----------------------------|-------------------------------|
|----------------------------|-------------------------------|
|----------------------------|-------------------------------|Gtrs
|------------------3---------|-----------------3-(3)---------|I&II
|-5-5---5-3-3---3--1-22-2-22-|-5-5---5-3-3---3-1-(1)---------|
|-3-3---3-1-1---1----00-0-00-|-3-3---3-1-1---1------------x-|
Riff B 2.5tx
Fill 2
|---------------------------|
|---------------------------|
|---------------------------|Gtrs
|---2---2-------------------|I
|---2---2-----------5-3-7-8-|
|-0-0---0-0-0-000-0-3-1-5-6-|
. . . ... . . . . .
Riff B 2tx
Riff C.1
|--------------------------------|
|--------------------------------|
|--------------------------------|Gtrs
|-----3-------3------------------|I&II
|-3---1---3---1------------------|
|-1-------1-----0000000000000000-|
|
|
|--------------------------------------|
|--------------------------------------|
|------------------------------10p9h10-|Gtrs
|-----3-------3--------10p9h10---------|I&II
|-3---1---3---1-777777-----------------|
|-1-------1----------------------------|
|
|
|--------------------------------|
|--------------------------------|
|--------------------------------|Gtrs
|-----3-------3------------------|I&II
|-3---1---3---1------------------|
|-1-------1-----0000000000000000-|
|
|
|----------------------------------|
|----------------------------------|
|----------------------------------|Gtrs
|-----3-------3--------------------|I&II
|-3---1---3---1------------------2-|
|-1-------1-----0000000000000000-0-|
^
End


Check Out Death8699.com, With More Transcriptions On It:
http://www.death8699.com


Ваше мнение



Капча

Рекомендуем