Downset
Prostitutionalized
Bass (Detune)
Main end first
Gb|-------------------------------|------------|
Db|------4-3-2----------4-3-2-----|------------|
Ab|------------4--------------4-2-|------------|
Eb|--/4-----------/4-4------------|--4-4--4-4--|
Chorus Post Chorus
Gb|-------------------------|------|----------------------|
Db|-------------------------|------|----------------------|
Ab|-------------------------|------|----------------------|
Eb|--0-4-4-4--0--0--0-0---0-|--4--|--4-4--0-0--0--0--0---|
Any questions, comments, criticism , anything else email to [email protected]





Ваше мнение



Капча

Рекомендуем