Song:In My Dreams
Written By:M.Brown,D.Dokken,G.Lynch,J.Pilson
Artist:Dokken
Album:Under Lock And Key
Tuning:Standard
Contributed By:Chris McLarty
The Hard Rock Dungeon
Www.geocities.com/hostile-youth/index.html
In My Dreams It's Still The Same,Your Love Is Strong,It Still Remains
First ending
|---------------------------------------|-----------|
|---------------------------------------|-----------|
|------------9--9------------------7--7-|-----------|
|------------9--9------------------7--7-|-----------|
|-----5--7---7--7------------5--7--5--5-|-----------|
|-5/7--------------0-0---5/7------------|-0-0--5/7--|
P.m..

|---------------------------------|
|---------------------------------|
|-------5-----7------9--9---------|
|-------5-----7------9--9---------|
|-5--7--3--0--5---0--7--7---------|
|---------------------------------|
P.m. p.m.
Second ending
|-------------------------------------------|
|-------------------------------------------|
|---------------5-5-----7--7----------------|
|---------------5-5-----7--7----5-----------|
|---------5--7--3-3--0--5--5----5-----------|
|-0-0-5/7-----------------------3-----------|
P.m.
Verse
|--------------------------------------------------|
|--------------------------------------------------|
|--------------------------------------------------|
|-0-2------------0--2-------------0--2-------------|
|-0-2------------0--2-------------0--2-------------|
|------0-0-0-0-0-------0-0-0-0-0--------0-0-0-0-0--|
First ending second ending
|-------------|----3----------------|
|-------------|----3--3--3----------|
|--5--9--7--7-|-5--0--2--2----------|
|--5--9--7--7-|-5--0--0--0----------|
|--3--7--5--5-|-3--x----------------|
|-------------|----3----------------|
Pre-chorus
|--------------------------------------------------|
|--------------------------------------------------|
|-4--5--4--2--2--0--2--2----4-5-4--2--2--0--2--2---|
|-2--2--2--2--2--0--2--2----2-2-2--2--2--0--2--2---|
|-------------------4--4--------------------4--4---|
|--------------------------------------------------|
|--------------------------------------------------|
|---------------------3--3--3----------------------|
|-4-5-4--2--2--0---2--2--2--2--------2------2------|
|-2-2-2--2--2--0---2--0--0--0--------2------2------|
|------------------4-----------0--3b-0--0---0------|
|-----------------------------------------3---3vv--|
Chorus
|------------------------------------------------|
|------------------------------------------------|
|----5--4---------------5--4--------------5------|
|-2--5--4--2---------2--5--4--2--------2--5------|
|-2--3--2--2---------2--3--2--2--------2--3------|
|-0--------0--0-0-0--0--------0--0-0-0-0---------|
|---------------------| first time go back to main riff.
|---------------------| second time go to solo.
|----7-----5-----9----|
|----7-----5-----9----|
|-0--5--0--3--0--7----|
|---------------------|
Solo
Touch harmonics p.m.........
|-------------------------------------------------|
|-------------------------------------------------|
|-2b--2/5vvvv--7(14)--9(14)vvv-------12-----12----|
|-------------------------------5/9-----9-9---9-9-|
|-------------------------------------------------|
|-------------------------------------------------|
P.H. p.m.. p.m. P.H. p.m.
|-------------------------------------------------|
|-------------------------------------------10----|
|-11vv------12p9--------11p8--------9vv--/9----9--|
|-------/10------10-10--------9-9-----------------|
|-------------------------------------------------|
|-------------------------------------------------|
P.m. p.m. p.m p.m.
|-------------------------------------------------|
|-12----13----10-----12-----13p10--10-10-12-------|
|-----9-----9-----9------9------------------------|
|-------------------------------------------------|
|-------------------------------------------------|
|-------------------------------------------------|
|-------------------------------------------------|
|-10h11p10p8----10---8h10h11p10p8-----------12h13-|
|-------------9----9--------------9vvv--14b-------|
|-------------------------------------------------|
|-------------------------------------------------|
|-------------------------------------------------|
(amazingly, he does this by pulling off)
|------------12h1512h19h12h15h12h1912h15h12h19----|
|--------/12--------------------------------------|
|-14vvv-------------------------------------------|
|-------------------------------------------------|
|-------------------------------------------------|
|-------------------------------------------------|
|-12h15h12h19p12h15p12h19p12h15p12h19p12h15p12h19-|
|-------------------------------------------------|
|-------------------------------------------------|
|-------------------------------------------------|
|-------------------------------------------------|
|-------------------------------------------------|
|-12h15p12h19--12h15p12h20p12h15p12h20p12h15p12h20|
|-------------------------------------------------|
|-------------------------------------------------|
|-------------------------------------------------|
|-------------------------------------------------|
|-------------------------------------------------|
|-12h15p12h20p12h15p12h20p12h15p12h20p12h15p12h20-|
|-------------------------------------------------|
|-------------------------------------------------|
|-------------------------------------------------|
|-------------------------------------------------|
|-------------------------------------------------|
|-12h15p12h20--12h15p12h19p12h15p12h19p12h15p12h19|
|-------------------------------------------------|
|-------------------------------------------------|
|-------------------------------------------------|
|-------------------------------------------------|
|-------------------------------------------------|
|-12h15p12h19p12h15p12h19p12h15p12h19p12h15p12h19-|
|-------------------------------------------------|
|-------------------------------------------------|
|-------------------------------------------------|
|-------------------------------------------------|
|-------------------------------------------------|
|-/20-20-20p19p17-------------------16------------|
|-----------------19h20p19-17----------20p19p17---|
|-----------------------------19-17---------------|
|-------------------------------------------------|
|-------------------------------------------------|
|-------------------------------------------------|
|-------------------------------------------------|
|----------------------------------20b--20vv------|
|-19p17--19p16h17p16---------------20b--20vv------|
|---------------------19--------------------------|
|------------------------19--19vv-----------------|
|-------------------------------------------------|
P.H.
|-------------------------------------|
|-------------------------------------|
|-19p16--15----14b--------------------|
|-------------------------------------|
|-------------------------------------|
|-------------------------------------|
Lyrics:
Toss and turn all night in the sheets
I can't sleep
Night after Night don't know what it means
In my dreams
What can I say or do?
You won't come back,we're through
I've realized too late
That, baby, your love has turned away
In My Dreams It's still the same
Your love is strong, It still remains
In My Dreams you're still be me
Just the way it used to be
Calling your name but you're turning away
Please don't leave
Running in circles trying to see you
In My Dreams
What can I say or do?
You won't come back,We're through
I've realized too late
That,Baby,Your love has turned away
In My Dreams it's still the same
Your Love is strong and still remains
In My Dreams you're still by me
Just The Way it used to be
SOLO:George Lynch
(repeat chorus a few times and fade out)


Ваше мнение



Капча

Рекомендуем