-##
Date: Tue, 19 Dec 1995 19:55:08 -0600
From: [email protected] (Patrick Harnish or Kelly Bennett)
Subject: Dio Tab
Strange Highways by Ronnie James Dio
Performed by Dio
Tabbed by [email protected]
2nd Intro played after acoustical part and chorus
E-|-----------------|---------------------------------------------------------|
B-|-----------------|---------------------------------------------------------|
G-|-----------------|---------------------------------------------------------|
D-|-----------------|x4-------------------------------------------------------|
A-|-2-2-------1---1-|---------------------------------------------------------|
E-|-0-0-2*-3*---3---|---------------------------------------------------------|
E-|-----------------------|---------------------------------------------------|
B-|-----------------------|---------------------------------------------------|
G-|-----------------------|---------------------------------------------------|
D-|-----------------------|---------------------------------------------------|
A-|--2-2-------1---1-2~~~-|---------------------------------------------------|
E-|--0-0-2*-3*---3--------|---------------------------------------------------|
This is played later on in the song
" Hey you...."
E-|------------|---|--------|-------------------------------------------------|
B-|------------|---|--------|-------------------------------------------------|
G-|------------|---|--------|-------------------------------------------------|
D-|------------|---|--------|-------------------------------------------------|
A-|-2-2-2-2-2-2|3-2|-2-2-2-2|2~-3~--------------------------------------------|
E-|-0-0-0-0-0-0|---|-0-0-0-0|-------------------------------------------------|
"Here is my confession
It's the only broken rule
Sometimes I crawl inside myself
Where I can't be the fool
On Strange Highways"RJD
--=====================_819428046==_
Content-Type: text/plain; charset="us-ascii"
--=====================_819428046==_--


Ваше мнение



Капча

Рекомендуем