This is a great song and really easy to play, I dont know why no one has tabbed it out. The solo is the only thing I cant quite do though. Long live Viv!
Intro / Verse
|----------------------------------
|----------------------------------
|------5-----5-----5-----4--4-4--
|------5-----5-----5-----4--4-4--
|-0-0---0-0---0-0---0-0---------
|----------------------------------
Pm . . . . . . . . . . .
|--------------------------------------------------
|--------------------------------------------------
|------5-----5------5-----5-4-0-7--7-7----------
|------5-----5------5-----5-4-0-7--7-7----------
|-0-0---0-0---0-0---0-0-----------------/----/---
|------------------------------------------/----/---
Pm. . . . . . . . . . . Pick Scrape
Chorus
|------------------------------------------
|------------------------------------------
|-7-7--------5-5--------9-9--------5-5--
|-7-7--------5-5--------9-9--------5-5--
|-5-5-0-0-0-3-3-0-0-0-7-7-0-0-0-3-3-
|------------------------------------------
Pm . . . . . . . . . . . . . . .
This is all i can think of off the top of my head, but this is a good starter for the song, sans a few things in the end of the chorus and the solo rhythm change. Good Luck!


Ваше мнение



Капча

Рекомендуем