-##
From: Warpath
RITDARK.TAB
This TAB transcription was created using TAB MASTER version 1.0
If you enjoy using this program, please consider telling the author
About it: Ofir Zwebner, e-mail: [email protected]
Snail-mail: Ehoud 10, Tel Aviv, 69936, Israel
This program is freeware, but it took me some work to make it, so
Your financial contribution is welcome.
--------------------------------------------------------------------
Rainbow in the Dark main Riff by Ronnie James Dio/ Vivain Cambell
Tab by Daniel M. Amitin
E:-----------------------5---------------------------------------------------|
B:-----------------------5---------------------------------------------------|
G:-2-------------------------------------------2-----------------------------|
D:-2--------3-----3\--5---------------h---p----2--------3-----3\--5----------|
A:-0--------3-----3\--5--------3--2--0--2--0---0--------3-----3\--5----------|
E:----3--0--1--0--1\--3-----0---------------------3--0--1--0--1\--3----------|
This is all I could think of off the the top of my head.(don't feel bad I

A.H.........
E:---------------------------------------------------------------------------|
B:---------------------------------------------------------------------------|
G:---------------------------------------------------------------------------|


Ваше мнение



Капча

Рекомендуем