E: Tue, 26 May 1998 03:09:48 +0300
From: mert
Subject: d/dio/holy_diver.tab
Holy Diver
Words and Music by Ronnie James Dio
Performed by Dio
Tabbed By:Mert Medeni ([email protected])

Main Riff * * * * * * *
*
E-|----------------------------------------------------------------------------------|
B-|----------------------------------------------------------------------------------|
G-|----------------------------------------------------------------------------------|
D-|----5---5-5---5---5-5---5---7---8---5---5-5---5-5---7---8---3---5---5-5----|
A-|----3---3-3---3---3-3---3---5---6---3---3-3---3-3---5---6---1---3---3-3----|
E-|----------------------------------------------------------------------------------|

E-|----------------------------------------------------------------------------|
B-|----------------------------------------------------------------------------|
G-|----------------------------------------------------------------------------|
D-|----5-5---7---8---5---3---------------------------------------------------|
A-|----3-3---5---6---3---1----6----------------------------------------------|
E-|---------------------------4------------------------------------------------|
*=Palm Muting


Ваше мнение



Капча

Рекомендуем