band: deadsy
song; key to gramercy park
drop D tuning
intro:
E|------------------------------------------------|
B|------------------------------------------------|
G|--6--3----6--1----6--3-----6--1----6-1-6-8-3----|
D|--7--4----7--2----7--4-----7--2----7-2-7-9-4----|
A|--7--4----7--2----7--4-----7--2----7-2-7-9-4----|
D|--5--2----5--0----5--2-----5--0----5-0-5-7-2----|
chorus:
E|---------------------------------------------------------|
B|---------------------------------------------------------|
G|---------------------------------------------------------|
D|---------------------------------------------------------|
A|--2-7--4-----2-7--2----2-7--4----2-7--2----7-2-7-9-4-4---|
D|--0-5--2-----0-5--0----0-5--2----0-5--0----5-0-5-7-2-2---|
verse:
E|------------------------------------------------------------------|
B|------------------------------------------------------------------|
G|------------------------------------------------------------------|
D|--4-4-------------------------------------------------------------|
A|--4-4---2-7--22----2-7--22-----2-7--44-----2-7---22---5-22-7-44---|
D|--2-2---0-5--00----0-5--00-----0-5--22-----0-5---00---5-00-5-22---|
the guy uses a sythisizer or however you spell it. have fun with this tab.
this was hard to tab and figuare out. so i hope you enjoy it AND DON'T COMPLAIN
IF THEIRS ANY PROBLEMS!!!!!


Ваше мнение



Капча

Рекомендуем