Title: Pusherman
Artist: Curtis Mayfield
Tabbed by: Allan Fretz ([email protected])
Comments: Dave St.Germain ([email protected]) transcibed
the verse previously. Sorry there is no rhythmic notation.
Verse:

G-----------------------||----------------------||
D--------3--1-----------||*-----3--1-----------*||
A--------------3--1--3--||*-----------3--1--3--*||
E--1--1-----------------||---1------------------||

Some variations for guitar solo:
(Not exactly what's played. Jam some of your own out.)

G--------------------------|--------------------|
D--------3-----3-----------|-----3--------------|
A-----------1--------0--1--|-----------1--2--3--|
E--1--1-----------4--------|--1-----4-----------|

Chorus:
3x
G||------------------|--------------|---------------||
D||*-----------8h10--|--8--6--------|--------------*||
A||*--------8--------|--------8--4--|-----------4--*||
E||---6--8-----------|--------------|--6--4--6------||

G-----------------|--------------|--------------|
D-----------8h10--|--8--6--------|--------------|
A--------8--------|--------8--4--|--------------|
E--6--8-----------|--------------|--6--4--6--4--|
And back to the verse:
G-----------------------||----------------------||
D--------3--1-----------||*-----3--1-----------*||
A--------------3--1--3--||*-----------3--1--3--*||
E--1--1-----------------||---1------------------||
========================================================================
== TABLATURE EXPLANATION ==
========================================================================
---------- ---------- ----t---
----5h8--- Hammeron ----(8)--- Ghost ----6--- Tap
---------- ---------- Note --------
----5p8--- Pulloff ---------- --------
---------- ---------- -----p--
----5/8--- Slide Up -----x---- Dead -----7-- Pop
---------- ---------- Note --s-----
----58--- Slide Down ---------- --5----- Slap
---------- ||------|| Repeat --------
----5~~~-- Vibrato ||*----*|| ---5^--- Bend
---------- ||*----*|| --------
---------- ||------|| --------
---------- ---------- --------
-4:------- Time ---------- --------
-4:------- Signature ---------- --------
---------- ---------- --------
Rhythm:
w = whole note W = dotted whole
h = half note H = dotted half
q = quarter note Q = dotted quarter
e = eighth note E = dotted eighth
s = sixteenth note S = dotted sixteenth
t = 32nd note T = dotted 32nd
x = 64th note X = dotted 64th
^ = triplet
========================================================================
== Created with a demo version of BUCKET O' TAB ==
== tablature creation software for Windows ==
== For more info email [email protected] ==
========================================================================


Ваше мнение



Капча

Рекомендуем