Johnny B Goode by Chuck Berry
The king of the of the duck walk! !
This is how I play it.... seems the easiest I have found
E------------------------4/5--5---5--4/5---5---5---4/5---5---5-----------
B----------------5---7---4/5--5---5--4/5---5---5---4/5---5---5-----------
G----------4/6-----------------------------------------------------------
D------------------------------------------------------------------------
A------------------------------------------------------------------------
E------------------------------------------------------------------------
E--------------------------------------------------------------------------
B-7--5---------------------------------------------------------------------
G------5/6-----------5/6---6---6---5/6---6---6---5/6---6---6---------------
D----------7--7--7---6/7---7---7---6/7---7---7---6/7---7---7---------------
A--------------------------------------------------------------------------
E--------------------------------------------------------------------------
E--------------------
B-7--5---------------
G------5/6-----------
D----------7--7--7---
A--------------------
E--------------------
E---------------------------
B-----------------5---------
G--------7^(10)------------- X8
D---------------------------
A---------------------------
E---------------------------
E-------------5----7---5----------------------------------------------------
B---5---7-------------------7---5-------------------------------------------
G---------------------------------------7---5---7---7^(9)---7^(9)---7---5---
D---------------------------------------------------------------------------
A---------------------------------------------------------------------------
E---------------------------------------------------------------------------
E-------------------------------------------------------------------------
B-------------------------------------------------------------------------
G------------------------- -7----5----------------------------------------
D---7----5----7----7----------------7----5----7----5----------------------
A--------------------------------------------------------------7----7-----
E-------------------------------------------------------------------------
A
Deep down in Louisiana, close to New Orleans,
A
Way back up in the woods among the evergreens,
D
There stood a log cabin made of earth and wood
A
Where lived a country boy named Johnny B. Goode
E
Who never ever learned to read or write so well,
A
But he could play the guitar just like a ringin' a bell.
CHORUS:
A
Go! Go! Go, Johnny, go! Go!
D
Go, Johnny, go! Go!
A
Go, Johnny, go! Go!
A E
Go, Johnny, go! Go! Johnny B. Goode
I Repeat the intro for the solo then back to the first verese for the chords.....then the ending is..............

E------------------------------------------------------------------5
B----7----5--------------------------------------------------------5
G-------------7----5-----------------------------------------------4
D-----------------------7----5------------------5---6---7----------3
A-----------------------------------7------------------------------3
E------------------------------------------------------------------5
This is my first attempt so please......be gentle! !
Go Home: Guitar Tabs More Tabs: Berry Chuck @ TabRobot.com




Ваше мнение



Капча

Рекомендуем