Tabed by Andreґ eliasson
Hear is the original version of Johnny be good.
It is chuck berry who wrot it. Listen to the record and have fun.
E|-------------|--6/7--7--7--6/7--7--7--6/7--7--|--7------------------
B|-------7--9--|--6/7--7--7--6/7--7--7--6/7--7--|-----10--9--7--------
G|--7/8--------|--------------------------------|---------------7--8--
D|-------------|--------------------------------|---------------------
A|-------------|--------------------------------|---------------------
E|-------------|--------------------------------|---------------------

E|--------|-----------------------------|---------------------------|
B|--------|-----------------------------|-------7--9--7-------------|
G|--------|-----------------------------|--7/8--8--8--8--7\6--4-----|
D|--9--9--|--9--9--9--9--9--9--9--9--9--|------------------------6--|
A|--------|--9--9--9--9--9--9--9--9--9--|---------------------------|
E|--------|-----------------------------|---------------------------|

E|-----------------------------|--7-------------------7--|
B|---------7---------7---------|--7---------7---------7--|
G|--10b11-----10b11-----10b11--|-----10b11-----10b11-----|
D|-----------------------------|-------------------------|
A|-----------------------------|-------------------------|
E|-----------------------------|-------------------------|

E|-------------------------------|----------------------7--|
B|---------7-----------7---------|--7---------7---------7--|
G|--10b11-------10b11-----10b11--|-----10b11-----10b11-----|
D|-------------------------------|-------------------------|
A|-------------------------------|-------------------------|
E|-------------------------------|-------------------------|
F# E
E|---------7--------------9--7--|--------------------------7-----|
B|------------10--9--7----------|--10--9--7-------------7-----10/|
G|--10b11-----------------------|------------9--7/8--8-----------|
D|------------------------------|--------------------------------|
A|------------------------------|--------------------------------|
E|------------------------------|--------------------------------|
B
E|--------------------------------------|-----------||
B|--9--7---------7---------7----9----7--|-----------||
G|--------10b11-----10b11-------9--6h8--|-----------||
D|--------------------------------------|--9--------||
A|--------------------------------------|-----------||
E|--------------------------------------|-----------||
VERSE
(using tab below)
B x4 - E x2 - B x2 - F# x2 - B x2
B E
E||----------------------------|----------------------------|
B||----------------------------|----------------------------|
G||----------------------------|----------------------------|
D||----------------------------|--9--9--11--9--9--9--11--9--|
A||--9--9--11--9--9--9--11--9--|--7--7---7--7--7--7---7--7--|
E||--7--7---7--7--7--7---7--7--|----------------------------|
F#



Загрузка...

Ваше мнение



Капча