Rotting Christ
Album: Triarchy Of The Lost Lovers
Song: King of a Stellar War
RiFF 1
|---------------------------------------------------------------|
|---------------------------------------------------------------|
|---------------------------------------------------------------|
|---------------------------------------------------------------|
|-----7-7-7-7-7-7--5-5-5-5-5-5--7-7-7-7-7-7-7-7-7-7-7-7---------|
|-----5-5-5-5-5-5--3-3-3-3-3-3--5-5-5-5-5-5-5-5-5-5-5-5---------|
P.M. .................................................
|----------------------------------------------------------------|
|----------------------------------------------------------------|
|----------------------------------------------------------------|
|-----5-5-5-5-5-5------------------------------------------------|
|-----3-3-3-3-3-3--5-5-5-5-5-5--7-7-7-7-7-7-7-7-7-7-7-7----------|
|------------------3-3-3-3-3-3--5-5-5-5-5-5-5-5-5-5-5-5----------|
P.M. .................................................
Riff 2
|-------------------------------------------------------|
|-------------------------------------------------------|
|-----------------7-----------------------7-------------|
|-----------5--5--5-----------------5--5--5-------------|
|-----7--7--3--3-----7--7-----7--7--3--3-----7----------|
|-----5--5-----------5--5-----5--5-----------5----------|
P.M. ^ ^ ^ ^ ^ ^ ^
|---------------------------------------------------------------|
|---------------------------------------------------------------|
|-----------------7---------------------------------------------|
|-----------5--5--5---------------------------------------------|
|-----7--7--3--3-----7--3--3--3-3-3-3-3-3--5--5--5-5-5-5-5-5----|
|-----5--5-----------5--1--1--1-1-1-1-1-1--3--3--3-3-3-3-3-3----|
P.M. ^ ^ ^ ^ ^ ^ ^ ^ ^ ^ ^ ^ ^ ^ ^
Riff 3
guitar 1
|----------------------------------------------------|
|----------------------------------------------------|
|----9-----------------------------------------------|
|-7-----10--9--7--9------9--10-----9--10--9------7---|
|--------------------10---------8------------10------|
|----------------------------------------------------|
P.M. ^ ^ ^ ^
guitar 2
|----------------------------------------------------|
|----------------------------------------------------|
|----------------------------------------------------|
|---------------------5--5---------------------------|
|--7--7---------------3--3--------3--3---------------|
|--5--5---------------------------1--1---------------|
^ ^ ^
P.M.
Riff 4
|---------------------------------------------------------------|
|---------------------------------------------------------------|
|---------------------------------------------------------------|
|---------------------------------------------------------------|
|----19..--17..--15..--14..--17..--14..--15..--17--17-17-17-17--|
|----------------------------------------------15--15-15-15-15--|
P.M. ^^ ^^ ^^ ^^ ^^ ^^ ^^ ^^ ^^ ^^ ^^

|----------------------------------------------------------|
|----------------------------------------------------------|
|----------------------------------------------------------|
|----------------------------------------------------------|
|-17-17-17-17-17--15--15-15-15-15--15--15-15-15-15---------|
|-15-15-15-15-15--13--13-13-13-13--13--13-13-13-13---------|
^^ ^^ ^^ ^^ ^^ ^^ ^^ ^^ ^^ ^^ ^^ ^^
|----------------------------------------------------|
|----------------------------------------------------|
|----------------------------------------------------|
|----------------------------------------------------|
|--14--15--17--14--15--17--14--15--17--15--14--------|
|----------------------------------------------17----|
Riff 5
guitar 1
|------------------------------------------------|
|------------------------------------------------|
|------------------------------------------------|
|-----------------------5------------------------|
|-7---------------------3-----5------------------|
|-5---------------------------3------------------|

guitar 2
|------------------------------------------------|
|------------------------------------------------|
|----------------7-------------------------------|
|-------7--7--------7----------------------------|
|-7--7--------7--------7--8--8--7--5--7----------|
|-5----------------------------------------------|
Riff 6
|---------------------------------------------------|
|---------------------------------------------------|
|----------------------------b.u.-9--9--7-----------|
|------7--5---------------7----------------9--------|
|---7--------7-8-7--7--7----------------------------|
|---5------------------5----------------------------|
P.M. ^ ^ ^
|---------------------------------------------------------------------|
|---------------------------------------------------------------------|
|---------------------------------------------------------------------|
|------7--5-----------------------------------------------------------|
|---7--------7-8-7----5-7-8--5-7-8--5-7-8-7-5-------------------------|
|---5-----------------------------------------8-----------------------|
P.M. ^ ^ ^ ^ ^ ^ ^ ^ ^ ^ ^ ^ ^ ^ ^
RIFF 8
|---------------------|
|---------------------|
|---------------------|
|---------------------|
|--3/5--3--3/5--------|
|--------------0------|
I didn't had the time to give the playlist, but since this is an easy song
you'll definately hear the different parts.
There might be some mistakes, so if anyone see some or hear some mistakes
corrections are welcome at deathtabs.
Cauwie.


Ваше мнение



Капча

Рекомендуем