#-----------------------------------------------------------------------------#
#-- File created with Instab - http://www.pconline.com/~smcarey/instab.html --#
#-----------------------------------------------------------------------------#
Author/Artist: Celtic Frost
Title: Mexican Radio
Album: Into the Pandemonium
Transcribed by: andrew
Email: [email protected]
one of my favourite albums of all time and a killer
cover by the Wall of Voodoo
tunning: standard
---------------------------------------------|--------------------------------
---------------------------------------------|--------------------------------
---------4-/-5------4-/-5------4-/-5--5-5-5--|--------------------------------
---------4-/-5------4-/-5------4-/-5--5-5-5--|-x2-----------------------------
---------2-/-3------2-/-3------2-/-3--3-3-3--|--------------------------------
-0-0-0-0--------0-0--------0-0---------------|--------------------------------

------------|----------|-----------|----------|-------------------------------
------------|----------|-----------|----------|-------------------------------
--9---9-9-9-|-7--7-7-7-|-4--4-4-4--|-2--2-2-2-|-------------------------------
--9---9-9-9-|-7--7-7-7-|-4--4-4-4--|-2--2-2-2-|-------------------------------
--7---7-7-7-|-5--5-5-5-|-2--2-2-2--|-0--0-0-0-|-------------------------------
------------|----------|-----------|----------|-------------------------------

-----------------|------------------------------------------------------------
-----------------|------------------------------------------------------------
---2-----------7-|------------------------------------------------------------
---2---2---5---7-|------------------------------------------------------------
---0---2---5---5-|------------------------------------------------------------
-------0---3-----|------------------------------------------------------------
verse
--------------|---------------------------------------------------------------
--------------|---------------------------------------------------------------
--4-----2--5--|---------------------------------------------------------------
--4--4--2--5--|---------------------------------------------------------------
--2--4--0--3--|---------------------------------------------------------------
-----2--------|---------------------------------------------------------------
chorus alittle fill get it soon
------------------------------------------------------------------------------
------------------------------------------------------------------------------
------------------------------------------------------------------------------
------------------------------------------------------------------------------
------------------------------------------------------------------------------
------------------------------------------------------------------------------

all the rhythm bits are there listen to the song for the
timing and the changes
please correct me if im wrong
more songs will come fom the frost
cheers
maybe the frost will come again


Ваше мнение



Капча

Рекомендуем