From: Jeff Gabry
Subject: TAB: Innocence and wrath by Celtic Frost
Date: Tue, 2 Apr 1996 17:37:38 -0500
Celtic Frost Song"Innocence and Wrath"
From The Album"To Megatherion" Music By T.G.Warrior
Standard Tuning With Distortion

( Riff 1)
------------------------------------------------------------------------------------------------------------------------
------------------------------------------------------------------------------------------------------------------------
------------------------------------------------------------------------------------------------------------------------
------------------------------------------------------------------------------------------------------------------------
--2--3--5--4--7--6--9--7--8--11--8--10---------------------------------------------------------------------------
--0--1--3--2--5--4--7--5--6--9---6--8-----------------------------------------------------------------------------

( Riff 2)

--------------------------------------------------------------------------------------------------------------------------
--------------------------------------------------------------------------------------------------------------------------
--------------------------------------------------------------------------------------------------------------------------
--------------------------------------------------------------------------------------------------------------------------
--9-10--6--7--8--4--5--2--3-----------2-----------------------------------------------------------------------------
--7-8---4--5--6--2--3--0--1--0--0--0-0-----------------------------------------------------------------------------
How To Play?
1) riff 1 (2 times)
2) riff 2 (2 times)
3) riff 3 (1 time) Transcribed By Jeff Gabry
------ =_NextPart_000_01BB20BB.365601C0--


Ваше мнение



Капча

Рекомендуем