CELTIC FROST - DETHRONED EMPEROR
From the Album MORBID TALES
Copyright 1984 - NOISE RECORDS
Version 1.0 - JAN. 2001
Transcribed by: REAPER
For Questions, Comments, Newest Version, or Corrections contact
(YOUR NAME): at (YOUR E-MAIL ADDRESS)
Check Out Death Warp, With More Transcriptions On It:
http://www.wam.umd.edu/~ekubica
.. - palm mute / - slide up to
- slide down to ~ - vibrato
h - hammer on b - bend
p - pull off Suffixes for bend
ph - pinch harmonic
f - full bend h - half bend
* - see comment r - release t - tap bend
X - percussion mute ~ - vibrato bend
@ - slight palm mute () - ghost note, sustained note
Tune Gtr to E
Riff A
|-------------------------------------------|
|-------------------------------------------|
|--2---(2)----------------------------------|
|--2---(2)----------------------------------|
|/-0---(0)--2-2-2-2-3-2-2-2-2-3-2-2-8-7-----|
|-----------0-0-0-0-1-0-0-0-0-1-0-0-6-5-----|
Riff B
|--------------------------------------------------------------------|
|--------------------------------------------------------------------|
|--------------------------------------------------------------------|
|--------------------------------------------------------------------|
|2-2-2-2-2-2-2-2-2-2-2-2-8-8--2-2-2-2-2-2-2-2-2-2-2-2----------------|
|0-0-0-0-0-0-0-0-0-0-0-0-6-6--0-0-0-0-0-0-0-0-0-0-0-0-2b-320-320-3b--|
Riff C
|---------------------------------------|
|---------------------------------------|
|---------------3-----------------5-----|
|------4--------3--------6--------5-----|
|2-2-2-4--2-2-2-1--2-2-2-6--2-2-2-3-----|
|0-0-0-2--0-0-0----0-0-0-4--0-0-0-------|
Riff D
|----------------------------|
|----------------------------|
|----------------------------|
|------------------10-9------|
|------------------8--7------|
|0-000-0-000-0-000-----------|
Riff E
|--------------------------------------------------------------------|
|--------------------------------------------------------------------|
|--------------------------------------------------------------------|
|------------------------4-4-4-4-3-3-3-3-4-4-4-4-3-3-3-3-------------|
|4-4-4-4-4-4-4-4-4-4-4-4-2-2-2-2-1-1-1-1-2-2-2-2-1-1-1-1-------------|
|2-2-2-2-2-2-2-2-2-2-2-2---------------------------------------------|
Riff F
|---------------------------|
|---------------------------|
|---------------------------|
|---------------------------|
|---------------------------|
|0-0-3-2-0h1p0h1p0h1p0h-----|


Ваше мнение



Капча

Рекомендуем