Celine Dion - That`s The Way It Is
Album: All The Way... A Decade Of Songs
From: Andreas Anger
INTRO:
E|---4--------5--------------4--------2---|
B|------0--------2-----2--------0---------|
G|---1-----1--2-----2-----2--1-----1--2---|
D|----------------------------------------|
A|----------------------------------------|
E|----------------------------------------|
E #Cm #Gm A #Fm A B E
E|---------------------------------------------16---19------------------|
B|-14-16-17-17-17---14-16-17-17-16-17-14-12-14---------17-16-17-17---17-|
G|----------------------------------------------------------------------|
D|----------------------------------------------------------------------|
A|----------------------------------------------------------------------|
E|----------------------------------------------------------------------|
VERSE1:
#Cm A
I can read your mind, and I know your story
#Cm A B
I see what you`re going through (yeah)
#Cm A
It`s an uphill climb, and I`m feeling sorry
#Cm B E
But I know it will come to you (yeah)
#Fm A B
Don`t surrender, ?cause you can win
#Fm A
In this thing called love
CHORUS:
E A #Cm B
When you want it the most, there`s no easy way out
E A #Cm B
When you`re ready to go, and your heart`s left in doubt
#Gm #Cm A B #Fm A
Don`t give up on your faith, love comes to those who believe it
A B E
And that`s the way it is
VERSE2:
When you question me, for a simple answer
I don`t know what to say (no)
But it`s plain to see, if you stick together
You`re gonna find the way (yeah)
So don`t surrender, ?cause you can win
In this thing called love

E - #Cm - #Gm - A - #Fm - A - B

BRIDGE:
Em G
When life is empty, with no tomorrow
C G
And loneliness starts to call
Em G
Baby don`t worry, forget your sorrow
C D
?Cause love`s gonna conquer it all
CHORUS:
A D #Fm E
When you want it the most, there`s no easy way out
A D #Fm E
When you`re ready to go, and your heart`s left in doubt
#Cm #Fm D E Bm D
Don`t give up on your faith, love comes to those who believe it
D E A
And that`s the way it is...


Ваше мнение



Капча

Рекомендуем