Verse (Flowers at dawn.........)
E--------------------------------------------------|
B--------------------------------------------------|
G--------------------------------------------------|
D---------4---5---4---5-----4---5---4--------------|
A--5--5---2---3---2---3-----2---3---2---5---5------|
E--3--3---------------------------------3---3------|
E--------------------------------------------------|
B--------------------------------------------------|
G--------------------------------------------------|
D--7--5---4---5-----7---5---4----------------------|
A--5--3---2---3-----5---3---2----------------------|
E--------------------------------------------------|
E--------------------------------------------------|
B--------------------------------------------------|
G--------------------------------------------------|
D---------4---5---4---5-----4---5---4--------------|
A--5--5---2---3---2---3-----2---3---2---5---5------|
E--3--3---------------------------------3---3------|
E--------------------------------------------------|
B--------------------------------------------------|
G--------------------------------------------------|
D--7--5---4---5-----7---5---4---7-7-7-7-7-7--------|
A--5--3---2---3-----5---3---2---5-5-5-5-5-5--5-5-5-|
E--------------------------------------------3-3-3-|
Chorus (She's my wet blanket......) 4x
E--------------------------------------------------|
B--------------------------------------------------|
G--------------------------------------------------|
D-----------------7-7-7-7-7-7----------------------|
A--5-5-5-5-5-5----5-5-5-5-5-5----------------------|
E--3-3-3-3-3-3-------------------------------------|
Repeat verse and chorus (she pass allude.....)
Bridge: (What do you see.........)
E--------------------------------------------------|
B--------------------------------------------------|
G--------------------------------------------------|
D--5-5-5---7-7-7-----------------------------------|
A--3-3-3---5-5-5---5-5-5---2-2-2-------------------|
E------------------3-3-3---0-0-0-------------------|
E--------------------------------------------------|
B--------------------------------------------------|
G--------------------------------------------------|
D--5-5-5---7-7-7-----------------------------------|
A--3-3-3---5-5-5---5-5-5---2-2-2-------------------|
E------------------3-3-3---0-0-0-------------------|
E--------------------------------------------------|
B--------------------------------------------------|
G--------------------------------------------------|
D--5-5-5---7-7-7---5-5-5---7-7-7---5-5-5---7-7-7---|
A--3-3-3---5-5-5---3-3-3---5-5-5---3-3-3---5-5-5---|
E--------------------------------------------------|
Solo : (Rhythm main macam verse)
(Slide dan apaэ teknik lagi cari sendiri)
E----------------------------10-8-7/8-7---7------------|
B--10b---10-8-10-10b-1ob-10b------------8---8----------|
G------------------------------------------------------|
D------------------------------------------------------|
A------------------------------------------------------|
E------------------------------------------------------|
E--10-8-7/8-7---7----------------------------------|
B-------------8---8------8---8-10-10b-10b-10b------|
G--------------------7-9---9-----------------------|
D--------------------------------------------------|
A--------------------------------------------------|
E--------------------------------------------------|
E--------------------------------------------------|
B--8-(10)-8--7-(8)-7---7-----------7---7---7-------|
G--------------------9---9-8-7-8-9---9---9---------|
D--------------------------------------------------|
A--------------------------------------------------|
E--------------------------------------------------|
E--------------------------------------------------|
B--9-12-9-(10)-9---9-12-9-(10)-9---9-12-9-(10)-9---|
G--------------------------------------------------|
D--------------------------------------------------|
A--------------------------------------------------|
E--------------------------------------------------|
E-----------------------------------12-10-9-10-9---|
B--9-12-9-(10)-9---9-12-9-(10)-9-9-----------------|
G--------------------------------------------------|
D--------------------------------------------------|
A--------------------------------------------------|
E--------------------------------------------------|
E------9-------------------------------------------|
B--12-----12-10-9-10-12-10-12-14b-12-10-9-12-10-9--|
G--------------------------------------------------|
D--------------------------------------------------|
A--------------------------------------------------|
E--------------------------------------------------|
E------12-12-------12-------12--------12--------12-|
B--10---------9-10------9-10------9-10------9-10---|
G--------------------------------------------------|
D--------------------------------------------------|
A--------------------------------------------------|
E--------------------------------------------------|
Play verse and chorus as usual until the last part ofэ
the chorus which is a little bit different
She's my wet blan...ket
E--------------------------------------------------|
B--------------------------------------------------|
G--------------------------------------------------|
D------7-------------------------------------------|
A--5---5---------------7------5--------------------|
E--3-------------------5------3--------------------|


Ваше мнение



Капча

Рекомендуем