Song : Vio-Pipe (correction!)
Band : Butterfingers
Tabbed By : Diamond Jerry ([email protected])
it's a cool song,enjoy!!
Tuning : Down 1/2 step (D#-G#-C#-F#-A#-D#)
-------------------------------------------------------------------------------
[INTRO] Bass
then fill in riff here
d#|------------------------------|-------------12^-----------------------------|
A#|------------------------------|---------------------------------------------|
F#|------------------------------|---------------------------------------------|
C#|------------------------------|---------------------------------------------|
G#|------------4-x8------0-x8----|---------------------------------------------|
D#|---0-x16----------------------|---------------------------------------------|
then fill in solo here

[solo]
d#|--0-2-h4--2-0-2-4--2-0-2-4--2-0-2-4-2--0-4-7-4--0-4-7-4--0-2-4-2--0-2-4-2-0-|
A#|----------------------------------------------------------------------------|
F#|----------------------------------------------------------------------------|
C#|----------------------------------------------------------------------------|
G#|----------------------------------------------------------------------------|
D#|----------------------------------------------------------------------------|
d#|--9-7-7--0-9-7-7--0-9-7-7--0-9-7-7--0-4-7-4--0-4-7-4--0-2-4-2--0-2-4-2-0----|
A#|----------------------------------------------------------------------------|
F#|----------------------------------------------------------------------------|
C#|----------------------------------------------------------------------------|
G#|----------------------------------------------------------------------------|
D#|----------------------------------------------------------------------------|
d#|--5-4-4--0-5-4-4--0-5-4-4--0-5-4-4--0-9-7-7---9-7-7--0-4-7-4--0-4-7-4-0-----|
A#|----------------------------------------------------------------------------|
F#|----------------------------------------------------------------------------|
C#|----------------------------------------------------------------------------|
G#|----------------------------------------------------------------------------|
D#|----------------------------------------------------------------------------|
d#|--2-4-2--0-2-4--2-0-2-4--2-0-2-4-2--0--0--2-h4--2-0-2-4---0--2-2-2-2-2------|
A#|----------------------------------------------------------------------------|
F#|----------------------------------------------------------------------------|
C#|----------------------------------------------------------------------------|
G#|----------------------------------------------------------------------------|
D#|----------------------------------------------------------------------------|
Play rhythm here...(distortion) until end
Repeat solo until end
(chord)
E C# A
d#|---7----4----5------|
A#|---7----4----5------|
F#|---9----6----5------|
C#|---9----6----7------|
G#|---7----4----7------|
D#|---7----4----5------|
-------------------------------------------------------------------------------
Any comments or corrections,just mail me to [email protected]/ICQ #115343571


Ваше мнение



Капча

Рекомендуем