SONG : THE CHEMISTRY (BETWEEN US)
ALBUM : TRANSCENDENCE
TRANSCRIBED BY : buTterwoRth pUshful
E-MAIL : [email protected]
Dropped D
Intro containing 4 part
Part 1 4x
E--------------------------------------------------
B--------------------------------------------------
G--------------------------------------------------
D--------10-----10-----10-----10-------------------
A-8--8------8------8------8------8----0------------
D-8----8------8------8------8------8--0------------
E--------------------------------------------------
B--------------------------------------------------
G--------------------------------------------------
D-9--7--5--4--2-2--7-7--7----------------------
A-7--5--3--2--0-0--5-5--5----------------------
D------------------------------0-------------------
E--------------------------------------------------
B--------------------------------------------------
G--------------------------------------------------
D--------10-----10-----10-----10-------------------
A-8--8------8------8------8------8----0------------
D-8----8------8------8------8------8--0------------
E--------------------------------------------------
B--------------------------------------------------
G-9--7--5--4--2-2--7-7--7----------------------
A-7--5--3--2--0-0--5-5--5----------------------
A------------------------------0-------------------
D--------------------------------------------------
Part 2 4x
Guitar 1
E----------0-------------------0-------------------
B------3-----3------------3------3-----------------
G--------0-----0--------0----------0---------------
D---2-----------------0------0---------------------
A-3------------------------------------------------
D--------------------------------------------------
E-----------0--------------------------0-----------
B------3-------3------------------3-------3--------
G----0---0--------0-------------0---0--------0-----
D--------------------------------------------------
A-1--------------------------1---------------------
D--------------------------------------------------
Guitar 2 plays this one 4x
E--------------------------------------------------
B--------------------------------------------------
G--------------------------------------------------
D--------------------------------------------------
A--10-10-10-10-10-10-10---12-12-12-12-12-12-12-----
D--10-10-10-10-10-10-10---12-12-12-12-12-12-12-----
E--------------------------------------------------
B--------------------------------------------------
G--------------------------------------------------
D--------------------------------------------------
A--8-8-8-8-8-8-8-8-8-8-8-8-8-8---------------------
D--8-8-8-8-8-8-8-8-8-8-8-8-8-8---------------------
Part 3
E--------------------------------------------------
B--------------------------------------------------
G--------------------------------------------------
D--------------------------------------------------
A--6-7-8---4-5-6---2-3-0---------------------------
D--6-7-8---4-5-6---2-3-0---------------------------
Part 4 2x
E--------------------------------------------------
B--------------------------------------------------
G----7-9-10-12---10-9-10---9-7-9---7---------------
D--0-----------0---------0-------0-----------------
A--------------------------------------------------
D--------------------------------------------------
E--------------------------------------------------
B--------------------------------------------------
G----7-9-10-12---10-9-10---9-7-9---7---------------
D--0-----------0---------0-------0-----------------
A-----------------------------------------8-8-8----
D-----------------------------------------8-8-8----
Verse 2x
Come on again...... Why?????
E--------------------------------------------------
B--------------------------------------------------
G--------------------------------------------------
D--------------------------------------------------
A--12-12-12-12-12-12-------------8-8-8-8-8-8-------
D--12-12-12-12-12-12-------------8-8-8-8-8-8-------
Guitar 1
It's OK.......... Fall in love again.....
E----------0-------------------0-------------------
B------3-----3------------3------3-----------------
G--------0-----0--------0----------0---------------
D---2-----------------0------0---------------------
A-3------------------------------------------------
D--------------------------------------------------
E-----------0--------------------------0-----------
B------3-------3------------------3-------3--------
G----0---0--------0-------------0---0--------0-----
D--------------------------------------------------
A-1--------------------------1---------------------
D--------------------------------------------------
Guitar 2 plays this one 4x
E--------------------------------------------------
B--------------------------------------------------
G--------------------------------------------------
D--------------------------------------------------
A--10-10-10-10-10-10-10---12-12-12-12-12-12-12-----
D--10-10-10-10-10-10-10---12-12-12-12-12-12-12-----
E--------------------------------------------------
B--------------------------------------------------
G--------------------------------------------------
D--------------------------------------------------
A--8-8-8-8-8-8-8-8-8-8-8-8-8-8---------------------
D--8-8-8-8-8-8-8-8-8-8-8-8-8-8---------------------
Repeat part 3 and 4: 1x
Then repeat verse,part 3
Chorus 4x
Silky colored....
E--------------------------------------------------
B--------------------------------------------------
G--------------------------------------------------
D------------10------------------------------------
A--12--8------8---10-------------------------------
D--12--8----------10-------------------------------
E--------------------------------------------------
B--------------------------------------------------
G--------------------------------------------------
D--------------------------------------------------
A--6-7-8---4-5-6---2-3-----------------------------
D--6-7-8---4-5-6---2-3-----------------------------
Then 4x
E----7----------9----------------------------------
B------6----------8--------------------------------
G--------------------------------------------------
D-0---------0--------------------------------------
A--------------------------------------------------
D--------------------------------------------------
Yeah.........
E--------------------------------------------------
B--------------------------------------------------
G--------------------------------------------------
D--------------------------------------------------
A--8-8-8-8-8-8-8-----0-----------------------------
D--8-8-8-8-8-8-8-----0-----------------------------
E--------------------------------------------------
B--------------------------------------------------
G--------------------------------------------------
D--7---5---3---2---0-0-5-5--5-0-----------------
A------------------------------------8---0---------
D------------------------------------8---0---------
E--------------------------------------------------
B--------------------------------------------------
G--9---7---5---4---2/---7-7--7-----------------
D--------------------------------------------------
A-------------------------------------8---0--------
D----------------------------------0--8---0--------
E--------------------------------------------------
B--------------------------------------------------
G--------------------------------------------------
D--------------------------------------------------
A--7---5---3---2---0--0-5-5--5-----8------------
D----------------------------------0--8------------
Rhythm for solo 4x
E--------------------------------------------------
B--------------------------------------------------
G--------------------------------------------------
D--------------------------------------------------
A--10-10-10-10-10-10-10---12-12-12-12-12-12-12-----
D--10-10-10-10-10-10-10---12-12-12-12-12-12-12-----
E--------------------------------------------------
B--------------------------------------------------
G--------------------------------------------------
D--------------------------------------------------
A--8-8-8-8-8-8-8-8-8-8-8-8-8-8---------------------
D--8-8-8-8-8-8-8-8-8-8-8-8-8-8---------------------
The ending part
E--------------------------------------------------
B--------------------------------------------------
G--------------------------------------------------
D--------------------------------------------------
A--10-10-10-10-10-10-10---12-12-12-12-12-12-12-----
D--10-10-10-10-10-10-10---12-12-12-12-12-12-12-----
E--------------------------------------------------
B--------------------------------------------------
G--------------------------------------------------
D--------------------------------------------------
A--8/---10---8------------------------------------
D--8/---10---8------------------------------------
Final pluckin'
E----------0-------------------0-------------------
B------3-----3------------3------3-----------------
G--------0-----0--------0----------0---------------
D---2-----------------0------0---------------------
A-3------------------------------------------------
D--------------------------------------------------
E-----------0--------------------------0-----------
B------3-------3------------------3-------3--------
G----0---0--------0-------------0---0--------0-----
D--------------------------------------------------
A-1--------------------------1---------------------
D--------------------------------------------------
E----------0-------------------0-------------------
B------3-----3------------3------3-----------------
G--------0-----0--------0----------0---------------
D---2-----------------0------0---------------------
A-3------------------------------------------------
D--------------------------------------------------
E-3------------------------------------------------
B-0------------------------------------------------
G-0------------------------------------------------
D--------------------------------------------------
A-1------------------------------------------------
D--------------------------------------------------


Ваше мнение



Капча

Рекомендуем