Title:Girl Friday
Tabbed by: Jalal and Ery Dan Aidil
Artist:ButterFingers
Riff 1
E|---------------------------------------|
B|---------------------------------------|
G|--------------------3--3---------------|
D|-3--3---------------3--3---------0-3-0-|
A|-3--3--------0-2-0--1--1---0-0-3-------|
E|-1--1--0-0-3---------------------------|
P.M........ P.M........
Riff 2
E|-----------------------------------------------------------------|
B|-----------------------------------------------------------------|
G|-----------------------------------------------------------------|
D|-4-4-4-4-4-4-4-4-4-4-4-4-4-4-4-4-7-7-7-7-7-7-7-7-7-7-7-7-7-7-7-7-|
A|-4-4-4-4-4-4-4-4-4-4-4-4-4-4-4-4-7-7-7-7-7-7-7-7-7-7-7-7-7-7-7-7-|
E|-2-2-2-2-2-2-2-2-2-2-2-2-2-2-2-2-5-5-5-5-5-5-5-5-5-5-5-5-5-5-5-5-|
Riff 3
E|----------------------------------|
B|----------------------------------|
G|------------------4-4-4-4-4-4-4-4-|
D|-2--2-2-2-2-------4-4-4-4-4-4-4-4-|
A|-2--2-2-2-2-----0-2-2-2-2-2-2-2-2-|
E|-0--0-0-0-0-2-4-------------------|
--------------------------------------------------------------------------------
Solo
LEGEND:
H hammer on
P pull off
/ slide kepada not tinggi
E|----------------------------------------------------------------------------------------|
B|----------------------------------------------------------------------------------------|
G|-10-9--10--9-10/12-10-9-10-9h10p9-------------------------------------------------------|
D|----------------------------------12-10-------------------------------------------------|
A|----------------------------------------12-12-13/15-13-12-13-12-12-10-12-13/15-13-12-13-|
E|----------------------------------------------------------------------------------------|
------2x-----
E|----------------|------------------------------------------------------------|---------------|
B|----------------|---------------10----10-11-10-11-13-------------------------|---------------|
G|----------------|-9-10-12-10-12----12----------------12-10-12h14p12h14p12-10-|----9-10-12-10-|
D|----------------|------------------------------------------------------------|-12------------|
A|-12-12-10-12----|------------------------------------------------------------|---------------|
E|-------------13-|------------------------------------------------------------|---------------|
---10x--
E|-------------------------|--------------------------------|-------------------------|
B|-11-10-11/13-11-10-11-10-|-13-11-10-----------------------|-11-10-11/13-11-10-11-10-|
G|-------------------------|----------12-10--10h12p10h12-10-|-------------------------|
D|-------------------------|--------------------------------|-------------------------|
A|-------------------------|--------------------------------|-------------------------|
E|-------------------------|--------------------------------|-------------------------|
E|-15b-15b--13-15-13-12-----------------------------------------------------------------------|
B|----------------------15--13-11-10-11-11h13p11h13p11-10-------------------11p10----------11-|
G|--------------------------------------------------------12-10-12----10-12-------12-10-12----|
D|-----------------------------------------------------------------12-------------------------|
A|--------------------------------------------------------------------------------------------|
E|--------------------------------------------------------------------------------------------|
E|-------------------|---------------------15b(BEND FOR A FEW TIMES)-rb15-|
B|-10-11-13-11-13-15-|-11h13-11---10h11-10--------------------------------------|
G|-------------------|----------------------------------------------------------|
D|-------------------|----------------------------------------------------------|
A|-------------------|----------------------------------------------------------|
E|-------------------|----------------------------------------------------------|

E|-12---------15----15------------------------------------------------------------|
B|-----14-12-----13----13-11--10-------------10-11-10----10-13--------------------|
G|-------------------------------12-10-10-12----------12--------14-12-12h14p12-10-|
D|--------------------------------------------------------------------------------|
A|--------------------------------------------------------------------------------|
E|--------------------------------------------------------------------------------|


Ваше мнение



Капча

Рекомендуем