Artist : Butterfingers
Title : Chrome
Tab By :[email protected]
solo dia aku cari sendiri bukan 100% sama mcm emmet main
first Intro :
lead guitar
e|---------------------------------
b|---------------------------------
g|---------------------------------
d|-0--10--10-10-10---9-10---0-10--- 4x
a|---------------------------------
E|---------------------------------
second guitar
e|----------------------
b|----------------------
g|----------------------
d|3-3-3-3--------------- 4x
a|3-3-3-3---------------
E|1-1-1-1---------------
Second intro:
lead guitar
e|-------------------------------------------------
b|-------------------------------------------------
g|------------------------------------------------- 4x
d|-0--10--10-10-10---9-10---0----------------------
a|------------------------------8--8-8-8--10-8-7-8-
E|-------------------------------------------------
second guitar
C B C F G F Em F
e|----------------------------------------
b|----------------------------------------
g|5-5-5-5---4--5-------------------------- 4x
d|5-5-5-5---4--5----3-3-3-3---5--3--2--3--
a|3-3-3-3---2--3----3-3-3-3---5--3--2--3--
E|------------------1-1-1-1---3--1--0--1--

C B C F
e|----------------------------
b|----------------------------
g|5-5-5-5---4--5--------------
d|5-5-5-5---4--5----3-3-3-3---
a|3-3-3-3---2--3----3-3-3-3---
E|------------------1-1-1-1---
verse 1 and 2 :
C F A G A G A
e|-----------------------------------------
b|-----------------------------------------
g|5-5-5-5-5--------------------------------
d|5-5-5-5-5----3-3-3-3-3----7-7--5-7-5--7-7 2x
a|3-3-3-3-3----3-3-3-3-3----7-7--5-7-5--7-7
E|-------------1-1-1-1-1----5-5--3-5-3--5-5
Bridge :
G F
e|----------------------------------------
b|----------------------------------------
g|----------------------------------------
d|5-5-5-5-5---3-3-3-3-3-------------------
a|5-5-5-5-5---3-3-3-3-3-------------------
E|3-3-3-3-3---1-1-1-1-1-------------------
chorus :
C B C F G F Em F
e|----------------------------------------
b|----------------------------------------
g|5-5-5-5---4--5-------------------------- 3x
d|5-5-5-5---4--5----3-3-3-3---5--3--2--3--
a|3-3-3-3---2--3----3-3-3-3---5--3--2--3--
E|------------------1-1-1-1---3--1--0--1--
Solo :
e|-----------------------------------------------------------------------
b|-----------------------------------------------------------------------
g|-7-7---11--9-9---7--9--7--11~-11--9--7--7-7---11--9-9---7--9--7--7-7~--
d|----------------------------------------------------------------------- 2x
a|-----------------------------------------------------------------------
E|-----------------------------------------------------------------------
e|---------------------------------------------------------------------------
b|---------------------------------------------------------------------------
g|-/14-14---/11--/9--/7--11--9-9---7--11---9---7--7---11--9-9----7--9--7-7~--
d|---------------------------------------------------------------------------
a|---------------------------------------------------------------------------
E|---------------------------------------------------------------------------
ulang second intro , verse , chorus , solo
pastuh ending ulang second intro
/ = slide
~ = pull up and down


Ваше мнение



Капча

Рекомендуем