Song: The Chemistry
Album: Transcendence
Band: Butterfingers
Tuning : Half step down & drop Db
Intro : (acoustic guitar)
intro 1
|-------------------------------------------------------------------------------------------------------|
|---------------5--------5---------5--------5---------5-------------------------------------------------|
|-------------------7-------7---------7--------7--------------------------------------------------------|
|-----------7-----------7-------7--------7--------7-----------------------------------------------------|
|-------5-----------------------------------------------------------------------------------------------|
|----5--------------------------------------------------------------------------------------------------|
intro 2 :(with violin after play x1)
|-------------------------------------|------------------------------------------------------------------|
|-------------------------------------|------------------------------------------------------------------|
|-------------------------------------|------------------------------------------------------------------|
|----9---7---5---4---4/2---27--------|-------7---7---7---7----------------------------------------------|
|----9---7---5---4---4/2---27--------|-------5---5---5---5----------------------------------------------|
|-------------------------------------|-------5---5---5---5----------------------------------------------|
|-----------------------------------|----------------------|
|-----------------------------------|----------------------|
|----9---7---5---4---4/2---27------|----------------------|
|----9---7---5---4---4/2---27------|-------7---7---7---7--|
|-----------------------------------|-------5---5---5---5--|
|-----------------------------------|-------5---5---5---5--|
play intro 2 above x4 and then
|-------------------------------------------------------------|
|-------5--------------5--------------5------------5----------|
|----------7---------------7--------------7-------------7-----|
|--------------7---------------7-------------7-------------7--| play several times and then
|-------------------------------------------------------------|
|---5--------------5---------------5-------------5------------|
intro 3 :(lead guitar)
(overdrive)
|------------------------------------------|
|------------------------------------------|
|------------------------------------------|
|----2-3-5-2-3-5-3-2-----------------------|
|----2-3-5-2-3-5-3-2-----------------------|
|----2-3-5-2-3-5-3-2-----------------------|
intro 4 :
(acoustic guitar) (all guitar)
|----------------------------------------------- |--------------------|
|--------------5-------------------------------- |--------------------|
|----4--6--7-----7--6--7--6--4--6--4------------ |----7--7--7--7--7---|
|--0--------------------0-----0----------------- x2 then |----5--5--5--5--5---|
|----------------------------------------------- |----5--5--5--5--5---|
|----------------------------------------------- |----5--5--5--5--5---|
play intro 4 above 2 times and then verse
Verse :
B
I never again and again count it over
B
Never again and again and again this
G
why ?
B
Come on again and again on my power
B
And on the shame and my pain will I get this ?
G
Why ?
backing rhythm for verse below
|-------------------------------------------------------|
|-------5-----5-----------------------------------------|
|---------7-----7---------------------------------------|
|-----7-----7-------------------------------------------|
|---7---------------------------------------------------|
|-------------------------------------------------------|
A
it's so real!!!
B G A
Fall in love again ?
B G A
It's all we have to live
B G A
Whenever i'm unseen
B G
I blame it on myself
intro 4 :
intro 5 :
verse :
intro 4:
B
Silky coloured
G D intro 3
will you love me ? (Suck !)
B
Silky coloured
G D intro 3
will you leave me ?
B
Silky coloured
G D
Indecision (Go !)
B
Silky coloured
G D intro 3
Cause i'm a patient..
solo 1:
|--------10---------11-------------------|
|-----------9-----------10---------------|
|----------------------------------------|
|-------------------------------| play--| x4
|----------------------------------------|
|----9-----------9-----------------------|
bass (dropped -D) get in after solo 1 play x2
|-----------------------------------------------------------|
|-----------------------------------------------------------|
|-----------------------------------------------------------|
|---9-9-9-9-9-9-9-9-/7-7-9-9-9-9-9-9------------------------|
and then play this before solo
|---------------------------------------------|
|---------------------------------------------|
|---------------------------------------------|
|----5--5--5--5--5--5-------------------------|
|----5--5--5--5--5--5-------------------------|
|----5--5--5--5--5--5-------------------------|
solo :
|-------------------------------------|----------------------------------------|
|-------------------------------------|----------------------------------------|
|-------------------------------------|----------------------------------------|
|-------------------------------------|-------7---7---7---7--------------------|
|----9---7---5---4---4/2---27--------|-------5---5---5---5--------------------|
|-------------------------------------|-------5---5---5---5--------------------|
|-------------------------------------|------------------------------------|
|-------------------------------------|------------------------------------|
|-------------------------------------|------------------------------------|
|----9---7---5---4---4/2---27--------|-------7---7---7---7----------------|
|-------------------------------------|-------5---5---5---5----------------|
|-------------------------------------|-------5---5---5---5----------------|
|------------------------------------------------------------|
|------------------------------------------------------------|
|------------------------------------------------------------|
|---5--5--5--5--5----7--7--7--7--7---------------------------|
|---5--5--5--5--5----7--7--7--7--7---------------------------|
|---5--5--5--5--5----7--7--7--7--7---------------------------|
B G A
Fall in love again ?
B G A
It's all we have to live..
B G A
Whenever i'm unseen
B G A
I blame it on myself X 2
B G G
Hooo!!!!
outro :
|-----------------------------------------------------------------------|
|---------------5--------5---------5--------5---------5-----------------|
|-------------------7-------7---------7--------7------------------------|
|-----------7-----------7-------7--------7--------7---------------------|
|-------5---------------------------------------------------------------|
|----5------------------------------------------------------------------|
Fall in love again ?
Fall in love again ?
Hmmmm....
Transcribed by butterspread
Any comment, e-mail me at [email protected]


Ваше мнение



Капча

Рекомендуем