BOB MARLEY and THE WAILERS
IRON LION ZION

album: NATURAL MYSTIC
INTRO (part 1)
G ||-------------------------------||
D ||-4-4---2-2---O-O---------------||
A ||-------------------2-2---O-2---||
E ||-------------------------------||

INTRO (part 2)
G ||---2-----2------------4-------4-------------------||
D ||-O---O-O---O-------2-----2-2----O-----------------||
A ||--------------------------------------------------||
E ||--------------------------------------------------||

VERSE
G ||-----------------------||
D ||--------O-O-O-4-4------||
A ||-2-2-2-----------------||
E ||-----------------------||

CHORUS
G ||---------------2-2-----------------------------||
D ||-O-O-O-O--4-4-----------------------2-2--------||
A ||--------------------O--O-O-O---4-4-------------||
E ||-----------------------------------------------||
G ||------------------------------------------||
D ||--------O-O-O--4-4-----------O-O-O--4-4---||
A ||-2-2-2----------------2-2-2---------------||
E ||------------------------------------------||
corrections and stuff to:
[email protected]


Ваше мнение



Капча

Рекомендуем