Title: WooHoo
Band: Blur

Tabbed out by ear by the Guitar Maniac! ©
100% correct!!!!

e|-------------------------------------|
B|-------------------------------------|
G|-------------------------------------|
D|--9-9-9--7-7-7--12-12--14--16--16-16-|
A|--9-9-9--7-7-7--12-12--14--16--16-16-|
E|--7-7-7--5-5-5--10-10--12--14--14-14-|

This is a very easy song.
When the distorted guitar bit starts the
bass plays the route note of every power chord.
bass:
G|-------------------------------------|
D|-------------------------------------|
A|-------------------------------------|
E|--7-7-7--5-5-5--10-10--12--14--14-14-|


Ваше мнение



Капча

Рекомендуем