BLUR
SONG 2
2:00

DROP D TUNING

ADAM POLLACK

THE SONG STARTS OUT WITH TWO MEASURES OF JUST DRUMS
THEN IT GOES INTO THIS RIFF FOR TWO TIMES

INTRO 2X

E-----------------------------------------------------------0
B-----------------------------------------------------------0
G--10--10--X--8--8--8--X---13--13--15--17----17--17---------0
D--10--10--X--8--8--8--X---13--13--15--17----17--17---------0
A---8---8--X--6--6--6--X---11--11--13--15----15--15---------0
D-----------------------------------------------------------0

THIS PROBABLY ISN'T THE RIGHT RHYTHM SO LISTEN TO THE SONG

CHORUS 4X (same rhythm as verse just with these chords)

E-----------------------o
B-----------------------o
G-----------------------o AT THE END OF EACH RIFF HE YELLS "WOO HOO!"
D--3--1--6--8--10-------o
A--3--1--6--8--10-------o
D--3--1--6--8--10-------o

THE SECOND GUITAR DOES THIS DURING THE CHORUS:

E--1--1--1--1--1--1--1--1--1--1--1--------O
B-----------------------------------------O
G-----------------------------------------O
D-----------------------------------------O
A-----------------------------------------O
D-----------------------------------------O

VERSE 1 4X (verse is the same as the intro)

CHORUS 3X

BRIDGE 1X

E---------------------------------------O
B---------------------------------------O YOU STRUM THE CHORDS FASTER THAN THAT
G---------------------------------------O BUT IT RESEMBLES THAT YOU STRUM THE 3RD
D--3-3-3---6-6-6---10-10-10-10-10-10----O AND 6TH FRET CHORDS FOR HALF THE MEASURE AND
A--3-3-3---6-6-6---10-10-10-10-10-10----O THE 10TH FRET CHORD FOR THE OTHER HALF
E--3-3-3---6-6-6---10-10-10-10-10-10----O

CHORUS 2X (with a heavy bass line)

VERSE 2 4X

CHORUS 3X

BRIDGE 1X

CHORUS 4X

LYRICS:

VERSE 1:

I got my head checked
By a jumbo jet
It wasn't easy
But nothin is, no

CHORUS:


Ваше мнение



Капча

Рекомендуем