Blur - Coffee and Tv

I've seen the electric version on this website and I noticed that it's hard to
play with an acoustic guitar, because of the long fades, so I tabbed the acoustic
version of the solo.

E------------------|-----12~-10~-----|-----------------
B--12~-------------|-------------11~-|-----------------
G------11--13--14~-|--9~~------------|--11--12--11-7/9~
D------------------|-----------------|-----------------
A------------------|-----------------|-----------------
E------------------|-----------------|-----------------

E------------------|---------------12|-----------------
B------------------|-----------------|-----------------
G------12--11--9---|------------9----|-----------------
D--12~~------------|--9~~~--12-------|-----------------
A------------------|-----------------|-----------------
E------------------|-----------------|-----------------


Ваше мнение



Капча

Рекомендуем