Band: Blur
Song: Advert
Submitted by: Thom

Heres a cool song from 'Modern Life is rubbish'.

Intro:

|------------------------------------------------|
|------------------------------------------------|
|------------------------------------------------|
|------------------------------------------------|
|----------------------------------------5--7----| (repeat)
|--5--5--5--5--5--5--5--5--5--5--5--5--5------5--|

A G
|--9---9---9---9---7--7--7--7--|
|--10--10--10--10--8--8--8--8--|
|--9---9---12--9---7--7--7--7--| (repeat)
|--11--11--11--11--9--9--9--9--|
|------------------------------|
|------------------------------|

Verse One:

A G
|--9---9---9---9---7--7--7--7--|
|--10--10--10--10--8--8--8--8--|
|--9---9---12--9---7--7--7--7--| (repeat)
|--11--11--11--11--9--9--9--9--|
|------------------------------|
|------------------------------|

Chorus:

Bm F# A G=20
|--2---2---5---3--|
|--3---2---5---3--|
|--4---3---6---4--| x2
|--4---4---7---5--|
|--2---4---7---5--|
|--2---2---5---3--|

Bm F#
|--2---2--|
|--3---2--|
|--4---3--|
|--4---4--|
|--2---4--|
|--2---2--|

A G
|--9---9---9---9---7--7--7--7--|
|--10--10--10--10--8--8--8--8--|
|--9---9---12--9---7--7--7--7--| x2
|--11--11--11--11--9--9--9--9--|
|------------------------------|
|------------------------------|

Bm F#
|--2---2--|
|--3---2--|
|--4---3--|
|--4---4--|
|--2---4--|
|--2---2--|

Fill, just before verse:
A G
|--9---9---9---9---7--7--7--7--|
|--10--10--10--10--8--8--8--8--|
|--9---9---12--9---7--7--7--7--| x4
|--11--11--11--11--9--9--9--9--|
|------------------------------|
|------------------------------|

Verse two: (As verse one)

(Chorus)

Bridge:

A G
|--9---9---9---9---7--7--7--7--|
|--10--10--10--10--8--8--8--8--|
|--9---9---12--9---7--7--7--7--| x2
|--11--11--11--11--9--9--9--9--|
|------------------------------|
|------------------------------|

A G A G (repeat)
|--9---9---9---9---7--7--7--7---9---9---10--9---7--7--7--7--|
|--10--10--10--10--8--8--8--8---10--10--10--10--8--8--8--8--|
|--9---9---12--9---7--7--7--7---9---9---9---9---7--7--7--7--|
|--11--11--11--11--9--9--9--9---11--11----------9--9--9--9--|
|-----------------------------------------------------------|
|-----------------------------------------------------------|

(Intro)

(Chorus)

Bm F# A G=20
|--2---2---5---3--|
|--3---2---5---3--|
|--4---3---6---4--| x2
|--4---4---7---5--|
|--2---4---7---5--|
|--2---2---5---3--|

Bm F#
(--2---2--
(--3---2--
(--4---3--
(--4---4--
(--2---4--
(--2---2--

A G
--9---9---9---9---7--7--7--7--------)
--10--10--10--10--8--8--8--8--------)
--9---9---12--9---7--7--7--7----x2--)(repeat the () 3 times)
--11--11--11--11--9--9--9--9--------)
------------------------------------)
------------------------------------)

Bm F# A
--2---2---5--|
--3---2---5--|
--4---3---6--|
--4---4---7--|
--2---4---7--|
--2---2---5--|

----------------------------------------------------------------------


Ваше мнение



Капча

Рекомендуем