From: zion [email protected]

Проигрыш для акустической гитары :

e|-------------------------------------------------------|-----------------------------------------------------------|
h|-------------------------------------------------------|-----------------------------------------------------------|
q|--------------4------------5------------4------------|--------------4-----------5-----------5---4---2---0----|
c|--------2-----------2------------2------------2-----|--------2-----------2-----------2------------------------|
a|--0---------------------------------------------------|--0-------------------------------------------------------|
e|-------------------------------------------------------|-----------------------------------------------------------|

e|-------------------------------------------------------|-----------------------------------------------------------|
h|-------------------------------------------------------|-----------------------------------------------------------|
q|--------------2------------4-------------2-----------|--------------2------------4-----------4---2---0---2---|
c|--------3-----------3-------------3--------------3---|-------3------------3-------------3---------------------|
a|--0----------------------------------------------------|--0-------------------------------------------------------|
e|-------------------------------------------------------|-----------------------------------------------------------|

e|-------------------------------------------------------|------------------------------------------------------------|
h|----------------------------1--------------------------|-----------------------------1-----------3---1---0---1--|
q|--------------0----------------------------0----------|---------------0-------------------------------------------|
c|--------2-----------2--------------2-------------2---|--------2------------2-------------2---------------------|
a|--3----------------------------------------------------|--3--------------------------------------------------------|
e|--------------------------------------------------------|-----------------------------------------------------------|

e|--------------------------------------------------------|-----------------------------------------------------------|
h|---------------------------1----------------------------|----------------------------1----------3---1---0---1---|
q|--------------2---------------------------2------------|---------------2------------------------------------------|
c|--------2-----------2------------2---------------2----|--------2------------2------------2---------------------|
a|--0-----------------------------------------------------|--0-------------------------------------------------------|
e|---------------------------------------------------------|----------------------------------------------------------|

Лежал погребённый в землице сырой
И каменный крест лежал надо мной
Но в полночь над ним всходит луна
И в эту ночь мне не до сна

Восстанем из мёртвых во славу пепла
Мёртвой богини
Мы будем солнцем, мы будем ветром
Отныне...

Восстанем из мёртвых во славу пепла
Мёртвой богини
Мы будем пастырем, будем судьёй
Отныне...


Ваше мнение



Капча

Рекомендуем